a b c d e f g h i j k l m n o p q r s t u v w x y z 0-9

Wake Me Up When September Ends

Green Day

			
Aquí está el tema de green day "wake me up when september ends" y se los trae Fabricio Guido Montevideo, Uruguay

INTRO:

e|-----------/-----------/-------------
B|----3----3-/----3----3-/----3----3---
G|--0----0---/--0----0---/--0----0-----
D|5----5-----/5----5-----/5----5-------
A|-----------/-----------/-------------
E|-----------/-----------/------------- X muchas veces

LOS VERSOS:

"Summer has come and passed, the innocent can never last"
e|--------------------------------------------------------
B|----3----3-----3----3-----3----3-----3----3-----3----3--
G|--0----0-----0----0-----0----0-----0----0-----0----0----
D|5----5-----5----5-----4----4-----2----2-----0----0------
A|--------------------------------------------------------
E|--------------------------------------------------------

"Wake me up when september ends"
e|--------------------------
B|----1----1------4-----4---
G|--0----0------0-----0-----
D|--------------------------
A|3----3------3-----3-------
E|--------------------------

EL CORO:

e|------------------------------------------------
B|----0----0-----3----3-----1----1------0------3--
G|--0----0-----2----2-----0----0------0------2----
D|------------------------------------------------
A|-----------2----2-----3----3--------------------
E|0----0----------------------------3----3-2------

e|----------------------------------------------
B|----0----0-----3----3-----1----1-----3----3---
G|--0----0-----2----2-----0----0-----2----2-----
D|---------------------------------0----0-------
A|-----------2----2-----3----3------------------
E|0----0----------------------------------------

VERSOS CON GUITARRA ELECTRICA:

e|---------------------------------------------------------
B|----3----3-----3----3-----3----3-----3-----3-----3----3--
G|--0----0-----0----0-----0----0-----0-----0-----0----0----
D|5----5-----5----5-----4----4-----2-----2-----0----0------
A|---------------------------------------------------------
E|---------------------------------------------------------

      Do         do m        Sol       Sol 
e|-0-----0-----3-----3-----3----3-----3----3---
B|-1-----1-----4-----4-----3----3-----3----3---
G|-0-----0-----5-----5-----0----0-----0----0---
D|-2-----2-----5-----5-----0----0-----0----0---
A|-3-----3-----3-----3-----2----2-----2----2---
E|-------------------------3----3-----3----3---

CORO CON GUITARRA ELECTRICA:

    mi m       si m        Do      Sol  Re inv
e|-0----0-----2----2-----0----0-----3----0-----
B|-0----0-----3----3-----1----1-----3----3-----
G|-0----0-----4----4-----0----0-----0----2-----
D|-2----2-----4----4-----2----2-----0----0-----
A|-2----2-----2----2-----3----3-----2----0-----
E|-0----0---------------------------3----2-----

    mi m       si m        Do         Re
e|-0----0-----2----2-----0----0-----2----2----
B|-0----0-----3----3-----1----1-----3----3----
G|-0----0-----4----4-----0----0-----2----2----
D|-2----2-----4----4-----2----2-----0----0----
A|-2----2-----2----2-----3----3---------------
E|-0----0-------------------------------------

ESTO ES TODO.

PD: El tema no lo saqué yo, fue un amigo.

Fuente: tusacordes.com