a b c d e f g h i j k l m n o p q r s t u v w x y z 0-9

Wake Me Up When September Ends

Green Day

			
-hernnan:
Aqui le va una de green day Whake my up when september ends
bien complato las tablaturass jeje espero que le gusten,,,,,



Intro:
e|---------------------------------------------------------|
B|------3-----3-------3-----3-------3-----3-------3-----3--|
G|----0-----0-------0-----0-------0-----0-------0-----0----|
D|--5-----5-------5-----5-------5-----5-------5-----5------|
A|---------------------------------------------------------|
E|---------------------------------------------------------|


  Summer has  come and passed  The innocent  can never last
e|----------------------------------------------------------|
B|----3----3--------3------3--------3-----3------3------3---|
G|--0----0-------0------0---------0-----0------0------0-----|
D|5----5------4------4----------2------2-----0------0-------|
A|----------------------------------------------------------|
E|----------------------------------------------------------|
   Wake me up    when September ends
e|-------------------------------------------------------------|
B|----5----5----------4------4----------3-----3---------3-----3|
G|---0-0-----0------0---0------0------0---0-----0-----0---0--0-|
D|-5-----5--------5--------5--------5-------5-------5-------5--|
A|-------------------------------------------------------------|
E|-------------------------------------------------------------|



  Like my fathers   come to pass   Seven years has gone so fast
e|-------------------------------------------------------------|
B|----3------3-----------3-----3--------3------3--------3-----3|
G|--0------0-----------0-----0--------0------0--------0-----0--|
D|5------5-----------4-----4--------2------2--------0-----0----
A|-------------------------------------------------------------|
E|-------------------------------------------------------------|
   Wake me up   when September ends
e|----------------------------------------------|--------------|
B|----5----5---------4-----4----------3-----3---|----3------3--|
G|---0-0-----0-----0---0-----0------0---0-----0-|------0-----0-|
D|-5-----5------5--------5--------5-------5-----|--5------4----|
A|----------------------------------------------|-5------4-----|
E|----------------------------------------------|--------------




    Em                Bm           C                 G      F#
   Here comes the   rain again    Falling from the stars
e|-------------------------------------------------|-----------|
B|-----0-----0---------3-----3----------4------4---|--3-----3--|
G|-------0----0------4---4------4-----5----5-----5-|----0----0-|
D|---2-----2-------4-------4--------5--------5-----|-5-----4---|
A|-2-----------------------------------------------|5-----4----|
E|-------------------------------------------------|-----------|
  Em               Bm             C             D
  Drenched in my   pain again    Becoming who we are
e|-------------------------------------------------------------|
B|-----0----0---------3----3--------4-----4----------5------5--|
G|-------0----0-----4---4----4----5---5-----5------7---7------7|
D|---2-------------4-------4-----5------5--------7--------7----|
A|-2-------2---------------------------------------------------|
E|-------------------------------------------------------------|

º
   As my memory rests   But never forgets what I lost
e|------------------------------------------------------------|
B|---3---3----3---3----------3------3---------3-----3---------|
G|--0---0----0---0---------0------0---------0-----0-----------|
D|-5---5----4---4--------2------2---------0-----0-------------|
A|------------------------------------------------------------|
E|------------------------------------------------------------|
  Wake me up    when September ends
e|-------------------------------------------------------------|
B|---5---5----------4-----4----------3-----3---------3-----3---|
G|--0-0---0-------0---0-----0------0---0-----0-----0---0-----0-|
D|-5----5-------5-------5--------5-------5-------5-------5-----|
A|-------------------------------------------------------------|
E|-------------------------------------------------------------|



------------------------------------

e|-----------------------------|
B|------3-----3-------3-----3--|
G|----0-----0-------0-----0----|
D|--5-----5-------5-----5------|
A|-----------------------------|
E|-----------------------------|

...((bateria))


--guitarra electrica:
e|----------------------------0----|
B|------3-----3-------3-----3------|
G|----0-----0-------0-----0--------|
D|--5-----5-------5-----5----------|
A|---------------------------------|
E|---------------------------------|
  Summer has  come and passed  The innocent  can never last
e|----------------------------------------------------------|
B|----3----3--------3------3--------3-----3------3------3---|
G|--0----0-------0------0---------0-----0------0------0-----|
D|5----5------4------4----------2------2-----0------0-------|
A|----------------------------------------------------------|
E|----------------------------------------------------------|
       C5         Cm5             G5
      Wake me up when September ends
e|----3-3-3------3-3-3---------------------|
B|----5-5-5------4-4-4---------------------|
G|----5-5-5------5-5-5---------------------|
D|----5-5-5------5-5-5----------5-5-5------|
A|----3-3-3------3-3-3----------5-5-5------|
E|----3-3-3------3-3-3----------3-3-3------|


   Ring out the bells again Like we did when spring began
e|---------------------------------------------------------|
B|-----3----3-------3----3-------3-----3-------3-----3-----|
G|---0----0-------0----0-------0-----0-------0-----0-------|
D|-5----5-------4----4-------2-----2-------0-----0---------|
A|---------------------------------------------------------|
E|---------------------------------------------------------|
       C           Cm             G5
      Wake me up when September ends
e|----3-3-3-------3-3-3-------------------------|
B|----5-5-5-------4-4-3-------------------------|
G|----5-5-5-------5-5-5-------------------------|
D|----5-5-5-------5-5-5----------5-5-5---55-44--|
A|----3-3-3-------3-3-3----------5-5-5---55-44--|
E|----3-3-3-------3-3-3----------3-3-3---33-22--|
          


    E5              B5         C5               G5     F#5
   Here comes the rain again Falling from the stars
e|-------------------------------------------------------------|
B|-------------------------------------------------------------|
G|-----------------4-4-4------5-5-5----------------------------|
D|-2-2-2-----------4-4-4------5-5-5-------------5-5-5--4-4-4---|
A|-2-2-2-----------2-2-2------3-3-3-------------5-5-5--4-4-4---|
E|-0-0-0----------------------------------------3-3-3--2-2-2---|
      E5             B5    C5            D5
    Drenched in my pain again Becoming who we are
e|-------------------------------------------------------|
B|-------------------------------------------------------|
G|------------------4-4-4------5-5-5-----------7-7-7-----|
D|---2-2-2----------4-4-4------5-5-5-----------7-7-7-----|
A|---2-2-2----------2-2-2------3-3-3-----------5-5-5-----|
E|---0-0-0-----------------------------------------------|



   As my memory rests   But never forgets what I lost
e|------------------------------------------------------------|
B|---3---3----3---3----------3------3---------3-----3---------|
G|--0---0----0---0---------0------0---------0-----0-----------|
D|-5---5----4---4--------2------2---------0-----0-------------|
A|------------------------------------------------------------|
E|------------------------------------------------------------|
           C           Cm             G5
      Wake me up when September ends
e|----3-3-3-------3-3-3-------------------------|
B|----5-5-5-------4-4-3-------------------------|
G|----5-5-5-------5-5-5-------------------------|
D|----5-5-5-------5-5-5----------5-5-5---55-44--|
A|----3-3-3-------3-3-3----------5-5-5---55-44--|
E|----3-3-3-------3-3-3----------3-3-3---33-22--|



    E5                      B5                    C5
e|-------------------------------------------------------------|
b|----12-------12-12-------12-------12-12-------15----15-15----|
g|12-12-12-12-12-12----11-11-11-11-11-11----12-12-12-12-12-12--|
d|-------------------------------------------------------------|
   G5            F#5
b|--------------------------------|
g|-12-12-12-12--11-11-11-11-11----|
d|--------------------------------|
   E5                      B5                    C5
e|-------------------------------------------------------------|
b|----12-------12-12-------12-------12-12-------15----15-15----|
g|12-12-12-12-12-12----11-11-11-11-11-11----12-12-12-12-12-12--|
d|-------------------------------------------------------------|
     D5               D5               D5             D5
e|-------------------------------------------------------------|
b|15-15-15-15--15-15-15-15--15-15-15-15---15-15-15-15----8..---|
g|12-12-12-12--11-11-11-11--12-12-12-12--11-11-11-11-----x..---|
d|-------------------------------------------------------5..---|



Guitarra acustica:
e|-------------------------------------------------0----0--|
B|------3-----3-------3-----3-------3-----3----------------|
G|----0-----0-------0-----0-------0-----0-------0-----0----|
D|--5-----5-------5-----5-------5-----5-------5-----5------|
A|---------------------------------------------------------|
E|---------------------------------------------------------|
 Summer has  come and passed  The innocent  can never last
e|----------------------------------------------------------|
B|----3----3--------3------3--------3-----3------3------3---|
G|--0----0-------0------0---------0-----0------0------0-----|
D|5----5------4------4----------2------2-----0------0-------|
A|----------------------------------------------------------|
E|----------------------------------------------------------|

      C          Cm              G5
      Wake me up when September ends
e|----3-3-3------3-3-3---------------------|
B|----5-5-5------4-4-4---------------------|
G|----5-5-5------5-5-5---------------------|
D|----5-5-5------5-5-5----------5-5-5------|
A|----3-3-3------3-3-3----------5-5-5------|
E|----3-3-3------3-3-3----------3-3-3------|

  Like my fathers   come to pass   Seven years has gone so fast
e|-------------------------------------------------------------|
B|----3------3-----------3-----3--------3------3--------3-----3|
G|--0------0-----------0-----0--------0------0--------0-----0--|
D|5------5-----------4-----4--------2------2--------0-----0----|
A|-------------------------------------------------------------|
E|-------------------------------------------------------------|
      C          Cm              G5
      Wake me up when September ends
e|----3-3-3------3-3-3---------------------|
B|----5-5-5------4-4-4---------------------|
G|----5-5-5------5-5-5---------------------|
D|----5-5-5------5-5-5----------5-5-5------|
A|------------------------------5-5-5------|
E|------------------------------3-3-3------|

      C          Cm              G5
      Wake me up when September ends
e|----3-3-3------3-3-3---------------------|
B|----5-5-5------4-4-4---------------------|
G|----5-5-5------5-5-5---------------------|
D|----5-5-5------5-5-5----------5-5-5------|
A|------------------------------5-5-5------|
E|------------------------------3-3-3------|

      C          Cm              G5     G5    G5  Gm5
      Wake me up when September ends
e|----3-3-3------3-3-3-------------------------33--33.-----|
B|----5-5-5------4-4-4-------------------------33--33..----|
G|----5-5-5------5-5-5-------------------------33--44..----|
D|----5-5-5------5-5-5----------5-5-5-5-5-5-5--55--55..----|
A|------------------------------5-5-5-5-5-5-5--55--55..----|
E|------------------------------3-3-3-3-3-3-3--33--33..----|


e|------3-------3----------3-------3--------3---------|
B|--------3-------3----------5-------4------3---------|
G|----------4-------4---5------5------5-----4---------|
D|----5-------5-------5----------5------5---5---------|
A|--5---------------------------------------5---------|
E|------------------------------------------3---------|
    ^
bue este es un punteo que creo q lo hace al final ,,, 
ami me parece que asi si quieren pruebenlo que queda ree biemn
((((((FIN)))))))


AGUANTEEE GREEN DAY;;;;;;;;;;)
YO
HERNAN,,,,,

Fuente: tusacordes.com