a b c d e f g h i j k l m n o p q r s t u v w x y z 0-9

Wake Me Up When September Ends

Green Day

			
La cancion parece dificil pero nole es

Intro:
----------------------
-----3------3--------
---0---0-0----------                         X4
---------------------                      
---------------------
-3-------------------

Cancion:
---------------------   |   ---------------------   |   ---------------------   |   ---------------------   |
-----3------3-------   |   -----3------3-------   |   -----3------3-------   |   -----3------3-------   |
---0---0-0----------  |   ---2---2-2----------   |   ---0---0-0----------  |   ---0---0-0----------  |
--------------------    |   ---------------------   |   ---------------------   |   ---------------------   |
---------------------   |   ---------------------   |   ---------------------   |   -3------------------   |
-3------------------    |   -2------------------   |   -0------------------    |   ---------------------   |

---------------------   |   ---------------------   |   ---------------------   |
-----1------1-------   |   -----1------1-------   |   -----0-----0---------  |    
---0---0-0----------  |   ---0---0-0----------   |  ---0---0-0-----------  |    
---------------------   |   --1------------------   |   --------------------    |
-0------------------    |   ---------------------   |  ---------------------    | 
---------------------   |   ---------------------   |   -3------------------    |


Estribillo:

---------------------    |   ---------------------   |   ---------------------    |   ---------------------    |   
-----0-----0-------     |   -----0-----0-------    |   -----1-----1--------    |   -----0-----0--------    |  
---0---0-0---------    |   ---0---0-0---------   |   ---0---0-0-----------   |   ---0---0-0----------   |   
-2------------------    |   -1-----------------     |   ---------------------    |   ---------------------    |   
---------------------   |   ---------------------   |   -3-------------------   |   ----------------------    |   
---------------------   |   ---------------------   |   ---------------------    |   -3------------------     |

---------------------    |   ---------------------   |   ---------------------    |   ---------------------    |   
-----0-----0-------     |   -----0-----0-------    |   -----1-----1--------    |   -----1-----1--------    |  
---0---0-0---------    |   ---0---0-0---------   |   ---0---0-0-----------   |   ---2---2-2----------   |   
-2------------------    |   -1-----------------     |   ---------------------    |   ---------------------    |   
---------------------   |   ---------------------   |   -3-------------------   |   ----------------------    |   
---------------------   |   ---------------------   |   ---------------------    |   -2------------------     |

Fuente: tusacordes.com