a b c d e f g h i j k l m n o p q r s t u v w x y z 0-9

Wake Me Up When September Ends (solo)

Green Day

			
e|---------7-----7----7-----7-----7---7-----8-----8----8-|
B|-1/8-8-8---8-8---8----7-7---7-7---7---8-8---8-8---8----|
G|-------------------------------------------------------|
D|-------------------------------------------------------|

e|-----------------|
B|-8-8-8-8-7-7-7-7-|
G|-----------------|
D|-----------------|

e|-----7-----7----7-----7-----7---7-----8-----8----8-|
B|-8-8---8-8---8----7-7---7-7---7---8-8---8-8---8----|
G|---------------------------------------------------|
D|---------------------------------------------------|

e|---------------------------------|
B|-8-8-8-8-8-8-8-8-7-7-7-7-7-7-7-7-| X2
G|---------------------------------| 
D|---------------------------------|







Fuente: tusacordes.com