a b c d e f g h i j k l m n o p q r s t u v w x y z 0-9

Time Of Your Life

Green Day

			
INTRO:

   G       G
E--------------------
B--------------------
G----0---0----0---0--
D------0--------0----
A--------------------
E--3--------3--------
   G                   C9        D  
E--------------------------------------------
B------3---------3---------3---------3-------
G--------0---------0---------0-----2----2----
D----0-----0---0-----0---2-----2-0--------0--
A----------------------3---------------------
E--3---------3-------------------------------
   G                   C9        D
E--------------------------------------------
B------3---------3---------3---------3-------
G--------0---------0---------0-----2----2----
D----0-----0---0-----0---2-----2-0--------0--
A----------------------3---------------------
E--3---------3-------------------------------
   G                   C9        D   
 Another turning point a fork in the road 
E--------------------------------------------
B------3---------3---------3---------3-------
G--------0---------0---------0-----2----2----
D----0-----0---0-----0---2-----2-0--------0--
A----------------------3---------------------
E--3---------3-------------------------------
   G                   C9        D  
time grabs you by the wrist direct you where to go  
E--------------------------------------------
B------3---------3---------3---------3-------
G--------0---------0---------0-----2----2----
D----0-----0---0-----0---2-----2-0--------0--
A----------------------3---------------------
E--3---------3-------------------------------

   e         D         C9        G
So make the best of this test and dont ask why
E------------------------------------------
B------0---------3---------3---------3-----
G--------0-----2---2---------0---------0---
D----2-----2-0-------0---0-----2---0-----0-
A----------------------3-------------------
E--0-----------------------------3---------
   e         D         C9        G
it not a question but a lesson learned in time
E------------------------------------------
B------0---------3---------3---------3-----
G--------0-----2---2---------0---------0---
D----2-----2-0-------0---0-----2---0-----0-
A----------------------3-------------------
E--0-----------------------------3---------
   e           G
Its something unpredirectable
E----------------------------
B-------0-----------3--------
G---------0-----------0------
D-----2------2----0-----0----
A----------------------------
E--0-----------3-------------
   e           G
 but in the end is right
E----------------------------
B-------0-----------3--------
G---------0-----------0------
D-----2------2----0-----0----
A----------------------------
E--0-----------3-------------
   e               D           G__________AQUI EMPIEZA EL RASGUEO
  I hope had the time of your life        Strum starts here
E----------------------------------  
B------0---------3---------3-------
G--------0-----2---2---------0-----
D----2-----2-0-------0---0-----0---
A----------------------------------
E--0-------------------3-----------

G C9 D X2

G  
So take the photographs 
   C9                     D
and still frames in your mind
G                      C9  
hang it on a shelf of good health
          D 
and good time
e              D             C9        G   
tattoos of memories and dead skin on trial
e              D  
for what it's worth,
 C9                   G  
it was worth all the while
  e                  G
It's something unpredictable,
  e                G   
but in the end is right
  e                 D            G     
i hope you had the time of your life. 

G C9 D X4

e D C9 G X2

  e                  G
It's something unpredictable,
  e                G   
but in the end is right
  e                 D            G     
i hope you had the time of your life. 

G C9 D X2

It's something unpredictable but in the end is right  
E--------------------------------------------
B------3---------3---------3---------3-------
G--------0---------0---------0-----2----2----
D----0-----0---0-----0---2-----2-0--------0--
A----------------------3---------------------
E--3---------3-------------------------------

 i hope you had the time of your life  
E--------------------------------------------
B------3---------3---------3---------3-------
G--------0---------0---------0-----2----2----
D----0-----0---0-----0---2-----2-0--------0--
A----------------------3---------------------
E--3---------3------------------------------- 
 
E--------------------------------------------
B------3---------3---------3---------3-------
G--------0---------0---------0-----2----2----
D----0-----0---0-----0---2-----2-0--------0--
A----------------------3---------------------
E--3---------3-------------------------------

E--------------------------------------------3--
B------3---------3---------3---------3-------3--
G--------0---------0---------0-----2----2----0--
D----0-----0---0-----0---2-----2-0--------0--0--
A----------------------3---------------------2--
E--3---------3-------------------------------3--

ACORDES
CHORDS

  G  C9  D  e 
E 3  3   2  0 
B 3  3   3  0
G 0  0   2  0
D 0  2   0  2
A 2  3   X  2
E 3  X   X  0

Fuente: Tusacordes