a b c d e f g h i j k l m n o p q r s t u v w x y z 0-9

Time Of Your Life

Green Day

G
Em
D
C
			
 
Acordes:

   G   Em  Cadd9 D   C
---3---0---3-----2---0---
---3---0---3-----3---1---
---0---0---0-----2---0---
---0---2---2-----0---2---
---2---2---3-----x---3---
---3---0---x-----x---x---

Intro

--------------------
--------------------
-------0--------0---
---------0--------0-
--------------------
---3-3------3-3-----


Verso 1  4x,

   G             G             Cadd9         D
-----------------------------------------------------------
-------3-------------3-------------3-------------3---------
-----0---0---0-----0---0---0-----0---0---0-----2---2---2---
-----------0-------------0-------------2-----0-------0-----
-------------------------------3---------------------------
---3-------------3-----------------------------------------

1. -
2. -
3. Another turning point a fork stuck in the road
4. Time grabs you by the wrist directs you where to go

dos vecess:

   Em            D             C             G
-----------------------------------------------------------
-------0-------------3-------------1-------------3---------
-----0---0---0-----2---2---2-----0---0---0-----0---0---0---
-----------2-----0-------0-------------2-------------0-----
---2---------------------------3---------------------------
---------------------------------------------3-------------

1. So make the best of this test and don't ask why
2. It's not a question but a lesson learned in time


una vezz
   Em            G             Em            G
-----------------------------------------------------------
-------0-------------3-------------0-------------3---------
-----0---0---0-----0---0---0-----0---0---0-----0---0---0---
-----------2-------------0-------------2-------------0-----
---2---------------------------2---------------------------
-----------------3---------------------------3-------------

1. It's something unpredictable but in the end it's right, ...

   Em            D
--------------------------------
-------0-------------3----------
-----0---0---0-----2---2--------
-----------2-----0-------0------
---2----------------------[0]---
--------------------------------

... I hope you had the time of your ...


G G Cadd9 D
... Life

G G Cadd9 D

G           G           Cadd9               D
So take the photographs and still frames in your mind.
G            G             Cadd9           D
Hang it on a shelf in good health and good time.
Em         D            C            G
Tattoos of memories and dead skin on trial.
Em               D            C             G
Through what its worth it was worth all the while
Em                  G             Em              G
It's something unpredictable, but in the end it's right
  Em               D            G
I hope you had the time of your life


Agora tbm entra o violino no fundo

G  G  Cadd9  D [4 vezes]
Em  D  C  G  [2 vezes]

Em                  G             Em              G
It's something unpredictable, but in the end it's right
  Em               D            G
I hope you had the time of your life

G Cadd9 D
G G Cadd9 D

ahora el finall

   Em            G             Em            G
-----------------------------------------------------------
-------0-------------3-------------0-------------3---------
-----0---0---0-----0---0---0-----0---0---0-----0---0---0---
-----------2-------------0-------------2-------------0-----
---2---------------------------2---------------------------
-----------------3---------------------------3-------------

1. It's something unpredictable, but in the end it's right, ...

   Em            D
---------------------------------
-------0-------------3-----------
-----0---0---0-----2---2---------
-----------2-----0-------0-------
---2----------------------[0]----
---------------------------------

1. I hope you had the time of your ...

   G             G             Cadd9         D
-----------------------------------------------------------
-------3-------------3-------------3-------------3---------
-----0---0---0-----0---0---0-----0---0---0-----2---2---2---
-----------0-------------0-------------2-----0-------0-----
-------------------------------3---------------------------
---3-------------3-----------------------------------------

1. ... life.


Começa com o ritmo normal e depois vai diminuindo a velocidade

   G             G             Cadd9         D             G
-----------------------------------------------------------3---]
-------3-------------3-------------3-------------3---------3---]
-----0---0---0-----0---0---0-----0---0---0-----2---2-2-0---0---]
-----------0-------------0-------------2-----0-------------0---]
-------------------------------3---------------------------2---]
---3-------------3-----------------------------------------3---]


chauu

cuidensen
 

Fuente: Lacuerda