a b c d e f g h i j k l m n o p q r s t u v w x y z 0-9

The Simpsons Movie Theme

Green Day

			
bueno pus esta es la guitarra principal :

6)------------------------------  (X2)
5)------------------------------
4)---------------4-4-4-5_____---  
3)-5-----------5----------------
2)---5-7---8-5------------------
1)-------5----------------------

6)------------------------------  (X2)
5)------------------------------
4)---------------3-3-3-3_____---  
3)-4-----------4----------------
2)---4-6---7-4------------------
1)-------4----------------------

6)------------------------------  (X2)
5)------------------------------
4)-----------------8-8-8-9_____-  
3)-9-------------9--------------
2)---9-11---12-9----------------
1)-------9----------------------

6)------------------------------  (X2)
5)------------------------------
4)---------------4-4-4-5_____---  
3)-5-----------5----------------
2)---5-7---8-5------------------
1)-------5----------------------

6)------------------------------  (X4) no estoy muy seguro
5)------------------------------
4)------------------------------  
3)----8--------8----------------
2)-11------11-------------------
1)------------------------------

6)------------------------------  (X2)
5)------------------------------
4)-----------------8-8-8-9_____-  
3)-9-------------9--------------
2)---9-11---12-9----------------
1)-------9----------------------

6)------------------------------  (X2)
5)------------------------------
4)---------------4-4-4-5_____---  
3)-5-----------5----------------
2)---5-7---8-5------------------
1)-------5----------------------

6)------------------------------  (X2)
5)------------------------------
4)------------------------------  
3)--4-4-4-5-8-------------------
2)--------------5-5-5-5-X-------
1)------------------------------

Fuente: tusacordes.com