a b c d e f g h i j k l m n o p q r s t u v w x y z 0-9

The One I Want

Green Day

			
Intro
e|---------------------------------------------------------------------------|
B|---------------------------------------------------------------------------|
G|-8-------------------------------------------------------------------------|
D|-8--3-3-3-3----------------------------------------------------------------|
A|-6--3-3-3-3----------------------------------------------------------------|
E|----1-1-1-1----------------------------------------------------------------|
Verse
e|---------------------------------------------------------------------------|
B|---------------------------------------------------------------------------|
G|-3-3-3-3-----------------9-9-9-9-------------------------------------------|
D|-3-3-3-3-3-3-3-3-6-6-6-6-9-9-9-9-------------------------------------------|
A|-1-1-1-1-3-3-3-3-6-6-6-6-7-7-7-7-------------------------------------------|
E|---------1-1-1-1-4-4-4-4---------------------------------------------------|
Chorus
e|---------------------------------------------------------------------------|
B|---------------------------------------------------------------------------|
G|-6-6-6-6---------3-3-3-3---------------------------------------------------|
D|-6-6-6-6-6-6-6-6-3-3-3-3---------------------------------------------------|
A|-4-4-4-4-6-6-6-6-1-1-1-1---------------------------------------------------|
E|---------4-4-4-4-----------------------------------------------------------|

Fuente: tusacordes.com