a b c d e f g h i j k l m n o p q r s t u v w x y z 0-9

The Judge´s Daughter

Green Day

			
Verse
e|---------------------------------------------------------------------------|
B|---------------------------------------------------------------------------|
G|-----------------5-5-5-5---------------------------------------------------|
D|-5-5-5-5-3-3-3-3-5-5-5-5-5-5-5-5-------------------------------------------|
A|-5-5-5-5-3-3-3-3-3-3-3-3-5-5-5-5-------------------------------------------|
E|-3-3-3-3-1-1-1-1---------3-3-3-3-------------------------------------------|
Chorus
e|---------------------------------------------------------------------------|
B|---------------------------------------------------------------------------|
G|-5-5-5-5-7-7-7-7-----------------------------------------------------------|
D|-5-5-5-5-7-7-7-7-5-5-5-5/3/5-5-5-------------------------------------------|
A|-3-3-3-3-5-5-5-5-5-5-5-5/3/5-5-5-------------------------------------------|
E|-----------------3-3-3-3/1/3-3-3-------------------------------------------|
Bridge
e|---------------------------------------------------------------------------|
B|---------------------------------------------------------------------------|
G|---------------------------------------------------------------------------|
D|-5-5-5/3/5-5-5-----x3------------------------------------------------------|
A|-5-5-5/3/5-5-5-------------------------------------------------------------|
E|-3-3-3/1/3-3-3-------------------------------------------------------------|

Fuente: tusacordes.com