a b c d e f g h i j k l m n o p q r s t u v w x y z 0-9

Song Of The Century

Green Day

			
A|-----------------------|------------------------|
B|-----------------------|------------------------|
C|-------8-10-8----------|-------8-10-8----8-10-8-|
X|-11-11--------11-8-6-6-|-11-11--------11--------|
Y|-----------------------|------------------------|
Z|-----------------------|------------------------|

A|--------------------------|------------------------|
B|--------------------------|------------------------|
C|----------8-10-8----------|-------8-10-8----8-10-8-|
X|----11-11--------11-8-6-6-|-11-11--------11--------|
Y|-11-----------------------|------------------------|
Z|--------------------------|------------------------|

A|---------------------------|---------------------------|
B|---------------------------|---------------------------|
C|---------------------------|-------------------------8-|
X|----11-8-11-7-7----11-9-11-|----11-8-11-7-7----11-11---|
Y|-11-------------11---------|-11-------------11---------|
Z|---------------------------|---------------------------|

A|--------------------------|-----------------------|
B|--------------------------|-----------------------|
C|----------8-10-8----------|----8-10-8----8-8-10-8-|
X|----11-11--------11-8-6-6-|-11--------11----------|
Y|-11-----------------------|-----------------------|
Z|--------------------------|-----------------------|

A|--------------------------|------------------|
B|--------------------------|------------------|
C|----------8-10-8----------|----------8-------|
X|----11-11--------11-8-6-6-|----11-11---11-11-|
Y|-11-----------------------|-11---------------|
Z|--------------------------|------------------|

gracias por consultar!!

Fuente: Tusacordes