a b c d e f g h i j k l m n o p q r s t u v w x y z 0-9

She

Green Day

			
Bueno esta es otra de mis favoritas de greenday  era para trompeta pero igual suena bien =D saludos y díganme si les salio 

e-6------------6--9--11-9----------6--9-11-9--9-9--11--9-9-------
B-------7----------------------7----------------------------7--9-
G---------------------------------------------------------------
D----------------------------------------------------------------
A----------------------------------------------------------------
E----------------------------------------------------------------

e-6--------6---------2--6-9--11-9--------6--9-11-9--9-9--11--9-9-
B-------------------------------------7--------------------------
G----------------------------------------------------------------
D----------------------------------------------------------------
A----------------------------------------------------------------
E----------------------------------------------------------------

e--------6---------------13----11--13--11--13---11---9--13--14---
B-7--9-----------------------------------------------------------
G----------------------------------------------------------------
D----------------------------------------------------------------
A----------------------------------------------------------------
E----------------------------------------------------------------

e--13-------11---9---------13--11-13-11-13-11--9--9----11---11---
B------14--------------------------------------------------------
G----------------------------------------------------------------
D----------------------------------------------------------------
A----------------------------------------------------------------
E----------------------------------------------------------------

e-12---11--9--------------11--9--9-----6--4--2------11--9---9----
B------------------11--------------------------------------------
G----------------------------------------------------------------
D----------------------------------------------------------------
A----------------------------------------------------------------
E----------------------------------------------------------------

e-7--------11--9----9----------6-------6-6----4------------------
B----7-----------------------------------------------------------
G----------------------------------------------------------------
D----------------------------------------------------------------
A----------------------------------------------------------------
E----------------------------------------------------------------

y se repite solo q al final después del 6--6---4-----14

e--------13----11--13--11--13---11---9--13--14-------------------
B----------------------------------------------------------------
G----------------------------------------------------------------
D----------------------------------------------------------------
A----------------------------------------------------------------
E----------------------------------------------------------------


e--13-------11---9---------13--11-13-11-13-11--9--9----11---11---
B------14--------------------------------------------------------
G----------------------------------------------------------------
D----------------------------------------------------------------
A----------------------------------------------------------------
E----------------------------------------------------------------

e-12---11--9--------------11--9--9-----6--4--2------11--9---9----
B------------------11--------------------------------------------
G----------------------------------------------------------------
D----------------------------------------------------------------
A----------------------------------------------------------------
E----------------------------------------------------------------

e-7--------11--9----9----------6-------6-6----4------------------
B----7-----------------------------------------------------------
G----------------------------------------------------------------
D----------------------------------------------------------------
A----------------------------------------------------------------
E----------------------------------------------------------------

Fuente: Tusacordes