a b c d e f g h i j k l m n o p q r s t u v w x y z 0-9

She

Green Day

			
Bass Verse:
|------------------------------------------|
|------------------------------------------|
|-4-4--4-4-4-4--2-2--2-2-2-2---------------|
|----------------------------2-2--2-2-2-2--|

Guitar Enters:
|------------------|-----------------------------------------------------|
|------------------|-----------------------------------------------------|
|------------------|-6-6-6-6-6-6-6-6-/-4-4-4-4-4-4-4-4-------------------|
|-4-4-4-4-4-4-4-4--|-6-6-6-6-6-6-6-6-/-4-4-4-4-4-4-4-4--4-4-4-4-4-4-4-4--|x2
|-4-4-4-4-4-4-4-4--|-4-4-4-4-4-4-4-4-/-2-2-2-2-2-2-2-2--4-4-4-4-4-4-4-4--|
|-2-2-2-2-2-2-2-2--|-----------------------------------/2-2-2-2-2-2-2-2--|
  . . . . 

Chorus:
|-----------------------------------|  
|-----------------------------------|  
|-4-4-4-4-4-4-4-4-0-----------------|x2 
|-4-4-4-4-4-4-4-4-0-4-4-4-4-4-4-4-4-|  
|-2-2-2-2-2-2-2-2-0-4-4-4-4-4-4-4-4-|  
|-----------------0-2-2-2-2-2-2-2-2-|  

|--------------------------------------------------------|
|--------------------------------------------------------|
|-4-4-4-4-4-4-4-4-0-----------------/-6-6-6-6-6-6-6-6-6--|
|-4-4-4-4-4-4-4-4-0-4-4-4-4-4-4-4-4-/-6-6-6-6-6-6-6-6-6--|x1
|-2-2-2-2-2-2-2-2-0-4-4-4-4-4-4-4-4-/-4-4-4-4-4-4-4-4-4--|
|-----------------0-2-2-2-2-2-2-2-2----------------------|

Verse: 
|-----------------------------------------------------------------|
|-----------------------------------------------------------------|
|-------------------6-6-6-6-6-6-6-6-/-4-4-4-4-4-4-4-----4---------|
|-4-4-4-4-4-4-4-4-/-6-6-6-6-6-6-6-6-/-4-4-4-4-4-4-4-4-4-4-4-4-4-4-|
|-4-4-4-4-4-4-4-4-/-4-4-4-4-4-4-4-4-/-2-2-2-2-2-2-2-4-4-2-4-4-4-4-|x2
|-2-2-2-2-2-2-2-2-/---------------------------------2-2---2-2-2-2-|
  . . . . . . . .   . .   . . .   .        

Pre-Chorus:
|-----------------------------------------------------|
|-----------------------------------------------------|
|-6-6-6-6-6-6-6-6-/-4-4-4-4-4-4-4-4-------------------|
|-6-6-6-6-6-6-6-6-/-4-4-4-4-4-4-4-4--4-4-4-4-4-4-4-4--|x2
|-4-4-4-4-4-4-4-4-/-2-2-2-2-2-2-2-2--4-4-4-4-4-4-4-4--|
|-----------------------------------/2-2-2-2-2-2-2-2--|

Chorus:
|-----------------------------------|  
|-----------------------------------|  
|-4-4-4-4-4-4-4-4-0-----------------|x2 
|-4-4-4-4-4-4-4-4-0-4-4-4-4-4-4-4-4-|  
|-2-2-2-2-2-2-2-2-0-4-4-4-4-4-4-4-4-|  
|-----------------0-2-2-2-2-2-2-2-2-|  

|--------------------------------------------------------|
|--------------------------------------------------------|
|-4-4-4-4-4-4-4-4-0-----------------/-6-6-6-6-6-6-6-6-6--|
|-4-4-4-4-4-4-4-4-0-4-4-4-4-4-4-4-4-/-6-6-6-6-6-6-6-6-6--|x1
|-2-2-2-2-2-2-2-2-0-4-4-4-4-4-4-4-4-/-4-4-4-4-4-4-4-4-4--|
|-----------------0-2-2-2-2-2-2-2-2----------------------|

Bridge:
|----------------------------------------------------------------------|
|----------------------------------------------------------------------|
|-----------------/-6-6-6-6-6-6-6-6-/-4-4-4-4-4-4-4-4-4-----4----------|
|-4-4-4-4-4-4-4-4-/-6-6-6-6-6-6-6-6-/-4-4-4-4-4-4-4-4-4-4-4-4-4-4-4-4--|x4
|-4-4-4-4-4-4-4-4-/-4-4-4-4-4-4-4-4-/-2-2-2-2-2-2-2-2-2-4-4-2-4-4-4-4--|
|-2-2-2-2-2-2-2-2---------------------------------------2-2---2-2-2-2--|

Chorus:
|-----------------------------------|  
|-----------------------------------|  
|-4-4-4-4-4-4-4-4-0-----------------|x2 
|-4-4-4-4-4-4-4-4-0-4-4-4-4-4-4-4-4-|  
|-2-2-2-2-2-2-2-2-0-4-4-4-4-4-4-4-4-|  
|-----------------0-2-2-2-2-2-2-2-2-|  

|--------------------------------------------------------|
|--------------------------------------------------------|
|-4-4-4-4-4-4-4-4-0-----------------/-6-6-6-6-6-6-6-6-6--|
|-4-4-4-4-4-4-4-4-0-4-4-4-4-4-4-4-4-/-6-6-6-6-6-6-6-6-6--|x1
|-2-2-2-2-2-2-2-2-0-4-4-4-4-4-4-4-4-/-4-4-4-4-4-4-4-4-4--|
|-----------------0-2-2-2-2-2-2-2-2----------------------|

Outro:
|------|
|------|
|------|x1
|-4-~--|
|-4-~--|
|-2-~--|

Fuente: Tusacordes