a b c d e f g h i j k l m n o p q r s t u v w x y z 0-9

She

Green Day

			
[Verso 1] - toquen desde la finalizacion del bajo
E||----------------------|
B||----------------------|
G||----------------------|
D||---4444444444444444---|
A||---4444444444444444---|
E||---2222222222222222---|

[Coro]
E||------------|----------|----------|
B||------------|----------|----------|
G||--66666666--|--444444--|----------|
D||--66666666--|--444444--|--444444--|
A||--44444444--|--222222--|--444444--|
E||------------|----------|--222222--|

E||------------|----------|----------|
B||------------|----------|----------|
G||--66666666--|--444444--|----------|
D||--66666666--|--444444--|--444444--|
A||--44444444--|--222222--|--444444--|
E||------------|----------|--222222--|

E||----------|----------|----------|
B||----------|----------|----------|
G||--444444--|----------|--444444--|
D||--444444--|--444444--|--444444--|
A||--222222--|--444444--|--222222--|
E||----------|--222222--|----------|

E||----------|----------|----------|
B||----------|----------|----------|
G||--444444--|----------|--444444--|
D||--444444--|--444444--|--444444--|
A||--222222--|--444444--|--222222--|
E||----------|--222222--|----------|

E||------------|
B||------------|
G||--66666666--|
D||--66666666--|
A||--44444444--|
E||------------|

[Verso 2] - tocar dos veces
E||------------|------------|------------|
B||------------|------------|------------|
G||------------|--66666666--|--44444444--|
D||--44444444--|--66666666--|--44444444--|
A||--44444444--|--44444444--|--22222222--|
E||--22222222--|------------|------------|

E||--------------|
B||--------------|
G||-----44-------|
D||--44-44-4444--|
A||--44-22-4444--|
E||--22----2222--|

[Coro]

[Puente] - tacar dos veces
E||------------|------------|------------|
B||------------|------------|------------|
G||------------|--66666666--|--44444444--|
D||--44444444--|--66666666--|--44444444--|
A||--44444444--|--44444444--|--22222222--|
E||--22222222--|------------|------------|

E||--------------|
B||--------------|
G||-----44-------|
D||--44-44-4444--|
A||--44-22-4444--|
E||--22----2222--|

[Coro]

[Final Coro]
E||------|
B||------|
G||------|
D||-4----|
A||-4----|
E||-2----|

Fuente: tusacordes.com