a b c d e f g h i j k l m n o p q r s t u v w x y z 0-9

Sassafras Roots

Green Day

			
Intro
   D    A    E
e|-2----0----0---------------------------------------------------|
B|-3----2----0---------------------------------------------------|
G|-2----2----1---------------------------------------------------|
D|-0----2----2---------------------------------------------------|
A|------0----2---------------------------------------------------|
E|-----------0---------------------------------------------------|

Verse x6, lyrics on third rep for first 2 verses, x2 for verse 3
   A          D    E
e|-0----------2----0---------------------------------------------|
B|-2---2-0----3----0---------------------------------------------|
G|-2-------2--2----1---------------------------------------------|
D|-2----------0----2---------------------------------------------|
A|-0---------------2---------------------------------------------|
E|-----------------0---------------------------------------------|

Chorus
   D5   E5  x2
e|---------------------------------------------------------------|
B|-3----------------Intro--------------------------------------|
G|-2-------------------------------------------------------------|
D|-0----2--------------------------------------------------------|
A|------2--------------------------------------------------------|
E|------0--------------------------------------------------------|

Bridge
   A          D    E   x2  F#5  D5  x3  E5
e|-0----------2--------------------------------------------------|
B|-2---2-0----3--------------------------------------------------|
G|-2-------2--2-------------------7---------9--------------------|
D|-2----------0----2---------4----7---------9--------------------|
A|-0---------------2---------4----5---------7--------------------|
E|-----------------0---------2-----------------------------------|


Order

Intro
Verse 1
Chorus
Verse 2
Chorus
Bridge
Verse 3
Chorus
Intro x3 "May I waste your time too?"


Lyrics

Roamin 'round your house wasting your time
No obligation just wasting your time		Verse 1
So why are you alone wasting your time?
When you could be with me wasting your time

Well I'm a waste like you
With nothing else to do				Chorus
May I waste your time too?

Wardin off regrets wasting your time
Smokin cigarettes wasting your time		Verse 2
I'm just a parasite wasting your time
Applying myself to wasting your time

Chorus
Bridge

So why are you alone wasting your time?		Verse 3
When you could be with me wasting your time

Chorus

May I waste your time too?

Fuente: Lacuerda