a b c d e f g h i j k l m n o p q r s t u v w x y z 0-9

Road To Acceptance

Green Day

			
Intro
e|---------------------------------------------------------------------------|
B|---------------------------------------------------------------------------|
G|-6-6-6-6-7-7-7-7-6-6-6-6-7-7-7-7-6-6-6-6-7-7-7-7-9-9-9-9-------------------|
D|-4-4-4-4-5-5-5-5-4-4-4-4-5-5-5-5-4-4-4-4-5-5-5-5-7-7-7-7-------------------|
A|---------------------------------------------------------------------------|
E|---------------------------------------------------------------------------|
Chorus
e|---------------------------------------------------------------------------|
B|---------------------------------------------------------------------------|
G|---------------7---7-7-7-5-5-5-------7-7-7-5-5-5-------5-5-5-------5-------|
D|-9-9-9-7-7-7-4-7-7-7-7-7-5-5-5-7-7-7-7-7-7-5-5-5-5-5-5-5-5-5-5-5-5-5-------|
A|-9-9-9-7-7-7-4-5-7-5-5-5-3-3-3-7-7-7-5-5-5-3-3-3-5-5-5-3-3-3-5-5-5-3-------|
E|-7-7-7-5-5-5-2---5-------------5-5-5-------------3-3-3-------3-3-3---------|
Outro
e|---------------------------------------------------------------------------|
B|---------------------------------------------------------------------------|
G|-5-4---5-4---5-4-----7-----------------------------------------------------|
D|-5-4-5-5-4-5-5-4-5---7-----------------------------------------------------|
A|-3-2-5-3-2-5-3-2-5---5-----------------------------------------------------|
E|-----3-----3-----3---------------------------------------------------------|

Fuente: tusacordes.com