a b c d e f g h i j k l m n o p q r s t u v w x y z 0-9

Redundant

Green Day

			
Intro/chorus
e|-------------------------------------------------------------------
b|----2--------2--------2--------------------------------------------
g|------2--------2--------2-----------4444444477777777------------9-9
d|-----------------------------444444444444444777777777777777777779-9
a|-----------------------------444444422222222555555557777777777777-7
e|-5-----4/54-----3/43-----3p022222222----------------555555555555---

Verse/
e|----------------------------------------------------------------
b|----------------------------------------------------------------
g|--------77777777------7-----------------77777777----------------
d|77777777777777777777777-7777777777777777777777772222222222225-5-
a|77777777555555557777775-7777777777777777555555552222222222225-5-
e|55555555--------555555--5555555555555555--------0000000000003-3-

e|-----------------------------------------------------------------
b|-----------------------------------------------------------------
g|--------77777777------7-----------------777777779999999999999999-
d|77777777777777777777777-7777777777777777777777779999999999999999-
a|77777777555555557777775-7777777777777777555555557777777777777777-
e|55555555--------555555--5555555555555555-------------------------

Instrumental Solo/
e|----------------------------------------------------------------
b|----------------------------------------------------------------
g|--------77777777------7-----------------44444444----------------
d|77777777777777777777777-7777777744444444444444442222222222225-5-
a|77777777555555557777775-7777777744444444222222222222222222225-5-
e|55555555--------555555--5555555522222222--------0000000000003-3-

e|-----------------------------------------------------------------
b|-----------------------------------------------------------------
g|--------77777777------------------------44444444-----------------
d|7777777777777777777777757777777744444444444444442222222222222222-
a|7777777755555555777777757777777744444444222222222222222222222222-
e|55555555--------555555535555555522222222--------0000000000000000-

bridge/
e|---------------------------------------------------------------------
b|----2--------2--------2----------------------------------------------
g|------2--------2--------2-----------4444444477777777-----------------
d|-7-------6--------5--------4-444444444444444777777777777777777777777-
a|-7-------6--------5--------4-444444422222222555555557777777777777777-
e|-5-------4--------3--------2-2222222----------------5555555555555555

Fuente: tusacordes.com