a b c d e f g h i j k l m n o p q r s t u v w x y z 0-9

Poprocks & Coke

Green Day

			
Aquí les dejo Poprocks & Coke como yo siempre busco canto y no acordes les subí la canción espero que les guste es mi primera canción pero no la ultima =D


e----------------------------------------------------------0-----
B---2-0--0-2-------2-0--2---0------------2-0---2--0--0-2-------0-
G------------2-----------------2---------------------------------
D----------------------------------------------------------------
A----------------------------------------------------------------
E----------------------------------------------------------------

e-----0----------------------------------------------------------
B--2-----3---------3-3--2-----------2-0-0-2-------2--0--2--0-----
G------------2---------------2--------------2-----------------0--
D----------------------------------------------------------------
A----------------------------------------------------------------
E----------------------------------------------------------------

e---------------------------0-----------0------------------------
B--2--0---2-0---0-0----2-------0-----2----3--------3-3--2--------
G--------------------------------------------2-------------2-----
D----------------------------------------------------------------
A----------------------------------------------------------------
E----------------------------------------------------------------

e----------------------------------------------------------------
B-2--0--------------0-------3--2--0-0-0-2---------3-2--0---0-2---
G------------2--2--------------------------2-------------------2-
D---------4-----------2------------------------------------------
A----------------------------------------------------------------
E----------------------------------------------------------------

e----------------------------------------------------------------
B-----2--0---0---------------2-0-----2----------2-0--0--2--0-----
G--2-------2---2------------------------2---------------------2-2
D----------------------------------------------------------------
A----------------------------------------------------------------
E----------------------------------------------------------------

e----------------------0----------------0------------------------
B-2-0----2---------2------0---------2-----3----------3-3---2-----
G------------2--2------------------------------2-------------2---
D----------------------------------------------------------------
A----------------------------------------------------------------
E----------------------------------------------------------------

e----------------------------------------------------------------
B-2---0-----------0--------------3--2--0-0-0-2-----3--2--0--2----
G-----------2--2-------------------------------2--------------2--
D--------4-----------4--2----------------------------------------
A----------------------------------------------------------------
E----------------------------------------------------------------

e---------------------------------------0------------------------
B----2--0--------0------------------4----------------------------
G-2--------2---------2------------------------------------------
D----------------------------------------------------------------
A----------------------------------------------------------------
E----------------------------------------------------------------

e----------------------------------------------------------------
B-2---0-----2------------2--0--0--2--0---------2--0-----2--------
G----------------2----------------------2------------------2--2--
D----------------------------------------------------------------
A----------------------------------------------------------------
E----------------------------------------------------------------

e------0---------------0-----------------------------------------
B-2---------0------2-------3--------------3--3--2----------------
G------------------------------2--------------------2------------
D----------------------------------------------------------------
A----------------------------------------------------------------
E----------------------------------------------------------------

e----------------------------------------------------------------
B--2-0-----------0-----------------3-2-0-0-0-2------3-2--0---0-2-
G----------2-2---------------------------------2-----------------
D-------4-----------4--2-----------------------------------------
A----------------------------------------------------------------
E----------------------------------------------------------------

e----------------------------------------------------------------
B-----------3----2----0------------------3---2------0------------
G-2----------------------------------2-----------2-----2---------
D----------------------------------------------------------------
A----------------------------------------------------------------
E----------------------------------------------------------------

e----------------------------------------------------------------
B-----3--2-------0-----------------3--2-----0--------------------
G-2---------2-------2-----------2--------2-----2-----------------
D----------------------------------------------------------------
A----------------------------------------------------------------
E----------------------------------------------------------------

Fuente: Tusacordes