a b c d e f g h i j k l m n o p q r s t u v w x y z 0-9

Paper Laterns

Green Day

			
Intro
e|---3--2--------------------------------------------------------------------|
B|-2-0--3-2------------------------------------------------------------------|
G|-2-0--2-2------------------------------------------------------------------|
D|-2-0----2------------------------------------------------------------------|
A|---2-----------------------------------------------------------------------|
E|---3-----------------------------------------------------------------------|
Verse
e|---------------------------------------------------------------------------|
B|---------------------------------------------------------------------------|
G|-3-3-3-3-----------------3-3-3-3---------8-8-8-8---------------------------|
D|-3-3-3-3-3-3-3-3-2-2-2-2-3-3-3-3-3-3-3-3-8-8-8-8-8-8-8-8-------------------|
A|-1-1-1-1-3-3-3-3-2-2-2-2-1-1-1-1-3-3-3-3-6-6-6-6-8-8-8-8-------------------|
E|---------1-1-1-1-0-0-0-0---------1-1-1-1---------6-6-6-6-------------------|

Fuente: tusacordes.com