a b c d e f g h i j k l m n o p q r s t u v w x y z 0-9

Only Of You

Green Day

			
Intro/Chorus
e|---------------------------------------------------------------------------|
B|---------------------------------------------------------------------------|
G|-----7---------------------------------------------------------------------|
D|-3-5-7-9-------------------------------------------------------------------|
A|-3-5-5-9-------------------------------------------------------------------|
E|-1-3---7-------------------------------------------------------------------|
Verse
e|---------------------------------------------------------------------------|
B|---------------------------------------------------------------------------|
G|-----------------7-7-7-7---------------------------------------------------|
D|-7-7-7-7-9-9-9-9-7-7-7-7-2-2-2-2-------------------------------------------|
A|-7-7-7-7-9-9-9-9-5-5-5-5-2-2-2-2-------------------------------------------|
E|-5-5-5-5-7-7-7-7---------0-0-0-0-------------------------------------------|
Bridge
e|---------------------------------------------------------------------------|
B|---------------------------------------------------------------------------|
G|-------------------9---9---9---9-------------------------------------------|
D|-9-9-9-9-7-7-7-7-4-9-4-9-4-9-4-9-------------------------------------------|
A|-9-9-9-9-7-7-7-7-4-7-4-7-4-7-4-7-------------------------------------------|
E|-7-7-7-7-5-5-5-5-2---2---2---2---------------------------------------------|

Fuente: tusacordes.com