a b c d e f g h i j k l m n o p q r s t u v w x y z 0-9

Oh Love

Green Day

			
Intro:
e|---------------------------------------------------------|
B|---------------------------------------------------------|
G|-----------x--x--x6--------x--x--x--6-6-6666-------------|
D|--xx-6-6---x?-x--x6--6-6---x--x--x--6-6-6666-6-6---x-?x--| x1
A|--xx-6-6?--x?-x--x4--6-6---x--x--x--4-4-4444-6-6---x--x--|
E|--xx-4-4?------------4-4---------------------4-4---x-?x--|

Verse:
e|---------------------------------------------------------|
B|---------------------------------------------------------|
G|--x6-------x--x--x6--------x--x--x--6-6-6666-------------|
D|--x6-6-6---x?-x--x6--6-6---x--x--x--6-6-6666-6-6---x-?x--| x3
A|--x4-6-6?--x?-x--x4--6-6---x--x--x--4-4-4444-6-6---x--x--|
E|-----4-4?------------4-4---------------------4-4---x-?x--|

Pre-chorus:
e|--------------------------------------------------------------|
B|--------------------------------------------------------------|
G|-----------x--x--x6--------x--x--x----------------------------|
D|--xx-6-6---x?-x--x6--6-6---x--x--x--6-6-6---8888888888888888--|
A|--xx-6-6?--x?-x--x4--6-6---x--x--x--4-3-4-6-6666666666666666--|
E|--xx-4-4?------------4-4------------------4-------------------|

Chorus:
e|-------------------------------------------------------------------|
B|-------------------------------------------------------------------|
G|----------8-8-8-8---------6-6-6-6---------8-8-8-8---------8-8-8-8--|
D|--6-6-6-6-8-8-8-8-6-6-6-6-6-6-6-6-6-6-6-6-8-8-8-8-6-6-6-6-8-8-8-8--|
A|--6-6-6-6-6-6-6-6-6-6-6-6-4-4-4-4-6-6-6-6-6-6-6-6-6-6-6-6-6-6-6-6?-|
E|--4-4-4-4---------4-4-4-4---------4-4-4-4---------4-4-4-4----------|

e|--------------------------------------------------------|
B|--------------------------------------------------------|
G|----------8-8-8-8---------6-6-6-6---------8-8-8-8-------|
D|--6-6-6-6-8-8-8-8-6-6-6-6-6-6-6-6-6-6-6-6-8-8-8-8--6-6--|
A|--6-6-6-6-6-6-6-6-6-6-6-6-4-4-4-4-6-6-6-6-6-6-6-6--6-6?-|
E|--4-4-4-4---------4-4-4-4---------4-4-4-4----------4-4--|

Interlude:
e|----------------------------|
B|----------------------------|
G|--6--------6-6-66666--------|
D|--6--6-6---6-6-66666-6-6----| x1
A|--4--6-6---4-4-44444-6-6----|
E|-----4-4?------------4-4----|

Verse:
e|-----------------------------------------------------------------------|
B|-----------------------------------------------------------------------|
G|--x6-------x--xx?-x?-x--x6--------x--xx--x?-xx--6-6-6666---------------|
D|--x6-6-6---x?-xx?-x?-x--x6--6-6---x--xx--x?-xx--6-6-6666-6-6---x-?xx?-x| x3
A|--x4-6-6?--x?-xx?-x?-x--x4--6-6---x--xx--x?-xx--4-4-4444-6-6---x--xx--x|
E|-----4-4?-------------------4-4--------------------------4-4---x-?xx--x|

Pre-chorus:
e|--------------------------------------------------------------|
B|--------------------------------------------------------------|
G|-----------x--x--x6--------x--x--x----------------------------|
D|--xx-6-6---x?-x--x6--6-6---x--x--x--6-6-6---8888888888888888--|
A|--xx-6-6?--x?-x--x4--6-6---x--x--x--4-3-4-6-6666666666666666--|
E|--xx-4-4?------------4-4------------------4-------------------|

Chorus:
e|-------------------------------------------------------------------|
B|-------------------------------------------------------------------|
G|----------8-8-8-8---------6-6-6-6---------8-8-8-8---------8-8-8-8--|
D|--6-6-6-6-8-8-8-8-6-6-6-6-6-6-6-6-6-6-6-6-8-8-8-8-6-6-6-6-8-8-8-8--|
A|--6-6-6-6-6-6-6-6-6-6-6-6-4-4-4-4-6-6-6-6-6-6-6-6-6-6-6-6-6-6-6-6?-|
E|--4-4-4-4---------4-4-4-4---------4-4-4-4---------4-4-4-4----------|

e|--------------------------------------------------------------------|
B|--------------------------------------------------------------------|
G|----------8-8-8-8---------6-6-6-6---------8-8-8-8-------------------|
D|--6-6-6-6-8-8-8-8-6-6-6-6-6-6-6-6-6-6-6-6-8-8-8-8--6-6-6-6-6-6-6-4--|
A|--6-6-6-6-6-6-6-6-6-6-6-6-4-4-4-4-6-6-6-6-6-6-6-6--6-6?6-6-6-6-6-4--|
E|--4-4-4-4---------4-4-4-4---------4-4-4-4----------4-4-4-4-4-4-4-2--|

Bridge:
e|----------------------------------------------------------------|
B|----------------------------------------------------------------|
G|--6-6---6-6--------------------6-6-6-6-6-6-6-6------------------|
D|--6-6---6-6---6-6---6-6?-6-4---6-6-6-6-6-6-6-6-6-6-6-6-6-6-6-4--|
A|--4-4---4-4---6-6---6-6?-6-4---4-4-4-4-4-4-4-4-6-6-6-6-6-6-6-4?-|
E|--------------4-4---4-4?-4-2-------------------4-4-4-4-4-4-4-2--|

e|---------------------------------------------------------------|
B|---------------------------------------------------------------|
G|--6-6---6-6-------88-1010-10-10-10-----------------------|
D|--6-6---6-6---6-6-88-1010-10-10-10---6-6-6---88888888----|
A|--4-4---4-4---6-6?66?8-8?-8?-8--8----4-3-4-6-66666666----|
E|--------------4-4--------------------------------4-------------|

Solo: Note: The rhythm chord progression over the solo is the same as the chorus, and
keep in mind I did this solo and song by ear so I improvised on the and the end of the
first bar of the solo

e|------------------------------------------|
B|------------------------------------------|
G|------------------------------------------|
D|--6-6-5-6/8-8-7-8/10-10-9-10-11-11-10-11--|
A|------------------------------------------|
E|------------------------------------------|

e|--------------------------------------------------------------------------|
B|--------------------------------------------------------------------18h19-|
G|--13-13-12-13/15-15-14-15/17-17-16-17/18-18-17-18-17-18----20-20-20-------|
D|--------------------------------------------------------18----------------|
A|--?-----------------------------------------------------------------------|
E|--------------------------------------------------------------------------|

e|----------------------------23-23-23--|
B|-20-20-20-19h20-21-21-21-21-----------|
G|--------------------------------------|
D|--------------------------------------|
A|------------------------------------?-|
E|--------------------------------------|

Interlude:
e|------------------------------------------------------|
B|------------------------------------------------------|
G|--------x--x--x6--------x--x--x--6-6-6666-------------|
D|--6-6---x?-x--x6--6-6---x--x--x--6-6-6666-6-6---x-?x--| x1
A|--6-6?--x?-x--x4--6-6---x--x--x--4-4-4444-6-6---x--x--|
E|--4-4?------------4-4---------------------4-4---x-?x--|

Verse:
e|---------------------------------------------------------|
B|---------------------------------------------------------|
G|--x6-------x--x--x6--------x--x--x--6-6-6666-------------|
D|--x6-6-6---x?-x--x6--6-6---x--x--x--6-6-6666-6-6---x-?x--| x1
A|--x4-6-6?--x?-x--x4--6-6---x--x--x--4-4-4444-6-6---x--x--|
E|-----4-4?------------4-4---------------------4-4---x-?x--|

Pre-chorus:
e|--------------------------------------------------------------|
B|--------------------------------------------------------------|
G|-----------x--x--x6--------x--x--x----------------------------|
D|--xx-6-6---x?-x--x6--6-6---x--x--x--6-6-6---8888888888888888--|
A|--xx-6-6?--x?-x--x4--6-6---x--x--x--4-3-4-6-6666666666666666--|
E|--xx-4-4?------------4-4------------------4-------------------|

Chorus:
e|-------------------------------------------------------------------|
B|-------------------------------------------------------------------|
G|----------8-8-8-8---------6-6-6-6---------8-8-8-8---------8-8-8-8--|
D|--6-6-6-6-8-8-8-8-6-6-6-6-6-6-6-6-6-6-6-6-8-8-8-8-6-6-6-6-8-8-8-8--|
A|--6-6-6-6-6-6-6-6-6-6-6-6-4-4-4-4-6-6-6-6-6-6-6-6-6-6-6-6-6-6-6-6?-|
E|--4-4-4-4---------4-4-4-4---------4-4-4-4---------4-4-4-4----------|

e|-------------------------------------------------------------------|
B|-------------------------------------------------------------------|
G|----------8-8-8-8---------6-6-6-6---------8-8-8-8---------8-8-8-8--|
D|--6-6-6-6-8-8-8-8-6-6-6-6-6-6-6-6-6-6-6-6-8-8-8-8-6-6-6-6-8-8-8-8--|
A|--6-6-6-6-6-6-6-6-6-6-6-6-4-4-4-4-6-6-6-6-6-6-6-6-6-6?6-6-6-6-6-6--|
E|--4-4-4-4---------4-4-4-4---------4-4-4-4---------4-4-4-4----------|

e|-------------------------------------------------------------------|
B|-------------------------------------------------------------------|
G|----------8-8-8-8---------6-6-6-6---------8-8-8-8---------8-8-8-8--|
D|--6-6-6-6-8-8-8-8-6-6-6-6-6-6-6-6-6-6-6-6-8-8-8-8-6-6-6-6-8-8-8-8--|
A|--6-6-6-6-6-6-6-6-6-6-6-6-4-4-4-4-6-6-6-6-6-6-6-6-6-6-6-6-6-6-6-6?-|
E|--4-4-4-4---------4-4-4-4---------4-4-4-4---------4-4-4-4----------|

e|-------------------------------------------------------------------|
B|-------------------------------------------------------------------|
G|----------8-8-8-8---------6-6-6-6---------8-8-8-8---------8-8-8-8--|
D|--6-6-6-6-8-8-8-8-6-6-6-6-6-6-6-6-6-6-6-6-8-8-8-8-6-6-6-6-8-8-8-8--|
A|--6-6-6-6-6-6-6-6-6-6-6-6-4-4-4-4-6-6-6-6-6-6-6-6-6-6?6-6-6-6-6-6--|
E|--4-4-4-4---------4-4-4-4---------4-4-4-4---------4-4-4-4----------|

Outro:
e|-----------------------------------|
B|-----------------------------------|
G|----------8-8-8-8---------8-8-8-8--|
D|--6-6-6-6-8-8-8-8-6-6-6-6-8-8-8-8--|
A|--6-6?6-6-6-6-6-6-6-6-6-6-6-6-6-6--|
E|--4-4-4-4---------4-4-4-4----------|

e|-------------------------------|
B|-------------------------------|
G|----------8-8-8-8---------6----|
D|--6-6-6-6-8-8-8-8-6-6-6-6-x-6--|
A|--6-6?6-6-6-6-6-6-6-6-6-6-4-6--|
E|--4-4-4-4---------4-4-4-4---4--|Fuente: Tus acordes