a b c d e f g h i j k l m n o p q r s t u v w x y z 0-9

Nice Guys Finish Last

Green Day

			
intro
|-------------------------------------------------------------
|-------------------------------------------------------------
|---9-9-9-9-9---------------9-9-9-9-9---------------9-9-9-9-9-
|-7-9-9-9-9-9-7-9-9-9-9-9-7-9-9-9-9-9-7-9-9-9-9-9-7-9-9-9-9-9-
|-7-7-7-7-7-7-7-9-9-9-9-9-7-7-7-7-7-7-7-9-9-9-9-9-7-7-7-7-7-7-
|-5-----------5-7-7-7-7-7-5-----------5-7-7-7-7-7-5-----------

------------------------------------------------|
------------------------------------------------|
---------------9-9-9-9-9----------------------9-|
-7-9-9-9-9-9-7-9-9-9-9-9-7-9-9-9-9-9-7-2----7-9-|
-7-9-9-9-9-9-7-7-7-7-7-7-7-9-9-9-9-9-7-2----7-7-|
-5-7-7-7-7-7-5-----------5-7-7-7-7-7-5-0----5---|

verse pm______________________________________|
|-----------------------------------------------------|
|-----------------------------------------------------|
|-9-9-9-9-9-9-9-9-9-9-9-9-9-----------------9-9-9-9-9-|
|-9-9-9-9-9-9-9-9-9-9-9-9-9-9-9-9-9-9-9-9-9-9-9-9-9-9-|
|-7-7-7-7-7-7-7-7-7-7-7-7-7-9-9-9-9-9-9-9-9-7-7-7-7-7-|
|---------------------------7-7-7-7-7-7-7-7-----------|

pre chorus
|---------------------------------------------------------------
|---------------------------------------------------------------
|-----------------9-9-9-9-9-9-9-9-----------------9-9-9-9-9-9-9-|-7-7-7-7-7-7-7-7-9-9-9-9-9-9-9-9-7-7-7-7-7-7-7-7-9-9-9-9-9-9-9-
|-7-7-7-7-7-7-7-7-7-7-7-7-7-7-7-7-7-7-7-7-7-7-7-7-7-7-7-7-7-7-7-|-5-5-5-5-5-5-5-5-----------------5-5-5-5-5-5-5-5---------------

----------------------------------------------------------------
----------------------------------------------------------------
-----------------9-9-9-9-9-9-9-9-----------------4-4-4-4-4-4-4-
-7-7-7-7-7-7-7-7-9-9-9-9-9-9-9-9-4-4-4-4-4-4-4-4-4-4-4-4-4-4-4-
-7-7-7-7-7-7-7-7-7-7-7-7-7-7-7-7-4-4-4-4-4-4-4-4-2-2-2-2-2-2-2-
-5-5-5-5-5-5-5-5-----------------2-2-2-2-2-2-2-2----------------

chorus
|---------------------------------------------------------------
|---------------------------------------------------------------
|-----------------2-2-2-2-2-2-2-2-----------------2-2-2-2-2-2-2-
|-2-2-2-2-2-2-2-2-2-2-2-2-2-2-2-2-2-2-2-2-2-2-2-2-2-2-2-2-2-2-2-
|-2-2-2-2-2-2-2-2-0-0-0-0-0-0-0-0-2-2-2-2-2-2-2-2-0-0-0-0-0-0-0-
|-0-0-0-0-0-0-0-0-----------------0-0-0-0-0-0-0-0---------------

-------------------------------------------------------|
-------------------------------------------------------|
-----------------2-2-2-2-2-2-2-2-4-4-4-4-4-4-4-4-4-4-4-|
-2-2-2-2-2-2-2-2-2-2-2-2-2-2-2-2-4-4-4-4-4-4-4-4-4-4-4-|
-2-2-2-2-2-2-2-2-0-0-0-0-0-0-0-0-2-2-2-2-2-2-2-2-2-2-2-|
-0-0-0-0-0-0-0-0---------------------------------------|


bridge
|-------------------------------------------------------------
|-------------------------------------------------------------
|---9-9-9-9-9---------------9-9-9-9-9---------------9-9-9-9-9-
|-7-9-9-9-9-9-7-9-9-9-9-9-7-9-9-9-9-9-7-9-9-9-9-9-7-9-9-9-9-9-
|-7-7-7-7-7-7-7-9-9-9-9-9-7-7-7-7-7-7-7-9-9-9-9-9-7-7-7-7-7-7-
|-5-----------5-7-7-7-7-7-5-----------5-7-7-7-7-7-5-----------

---------------------------------------------------------------|
---------------------------------------------------------------|
---------------9-9-9-9-9---------------------------------------|
-7-9-9-9-9-9-7-9-9-9-9-9-6-7-7-7-7-7-6-4-4-4-4-4-7-9-9-9-9-9-9-|
-7-9-9-9-9-9-7-7-7-7-7-7-6-7-7-7-7-7-6-4-4-4-4-4-7-9-9-9-9-9-9-|
-5-7-7-7-7-7-5-----------4-5-5-5-5-5-4-2-2-2-2-2-5-7-7-7-7-7-7-|

Fuente: Tusacordes