a b c d e f g h i j k l m n o p q r s t u v w x y z 0-9

Longview

Green Day

			
Tuning High to Low: Gb, Db, Ab, Eb

Key:
p = pull-off
h = hammer-on
 = slide down
~ = let ring

Intro:
Gb:------|
Db:------|
Ab:-123-|
Eb:------|
   
   5 Times
Gb:-------------------------------9-7-6-7-|
Db:-----9-7-6-----7-6-------9-7-6-0-0-0-0-|hit D string softly
Ab:-5h7-------7p5-----5-9p7---------------|
Eb:---------------------------------------|
   1 Time before chorus
Gb:-------------------------------------------------------|
Db:-----9-7-6-----7-6-------9-7-6-------------------------|
Ab:-5h7-------7p5-----5-9p7-------5-5-5-5-5-5-5-5-5-5-5-5-|
Eb:-------------------------------------------------------|

   1 Time
Gb:-------------------------------|
Db:-------------------------------|
Ab:-----------------------0h7-7-7-|
Eb:-7-0h7-0h7-0h7-0h5-0h5---------|

   3 Times
Gb:---------------------------------|
Db:---------------------------------|
Ab:-------------------------0h7-7-7-|
Eb:-0h7-0h7-0h7-0h7-0h5-0h5---------|

   2 Times
Gb:-----7-------9---7-6-4---|
Db:-------7-7h9---9-0~----7-|
Ab:-9p7---------------------|
Eb:-------------------------|

   3 Time
Gb:-------------------------------9-7-6-7-|
Db:-----9-7-6-----7-6-------9-7-6-0-0-0-0-|hit D string softly
Ab:-5h7-------7p5-----5-9p7---------------|
Eb:---------------------------------------|
   
   1 Time before chorus
Gb:-------------------------------------------------------|
Db:-----9-7-6-----7-6-------9-7-6-------------------------|
Ab:-5h7-------7p5-----5-9p7-------5-5-5-5-5-5-5-5-5-5-5-5-|
Eb:-------------------------------------------------------|

   1 Time
Gb:-------------------------------|
Db:-------------------------------|
Ab:-----------------------0h7-7-7-|
Eb:-7-0h7-0h7-0h7-0h5-0h5---------|

   3 Times
Gb:---------------------------------|
Db:---------------------------------|
Ab:-------------------------0h7-7-7-|
Eb:-0h7-0h7-0h7-0h7-0h5-0h5---------|

   4 Times
Gb:-----------------|
Db:---9-7-6---------|
Ab:-7-------5-4-----|
Eb:-------------7-5-|

  1 Time
Gb:-------------------------------|
Db:-------------------------------|
Ab:-----------------------0h7-7-7-|
Eb:-7-0h7-0h7-0h7-0h5-0h5---------|

   3 Times
Gb:---------------------------------|
Db:---------------------------------|
Ab:-------------------------0h7-7-7-|
Eb:-0h7-0h7-0h7-0h7-0h5-0h5---------|

   6 Times
Gb:-----7-------9---7-6-4---|
Db:-------7-7h9---9-0~----7-|
Ab:-9p7---------------------|
Eb:-------------------------|

  1 Time
Gb:-------------------------------9-7-6-7-|
Db:-----9-7-6-----7-6-------9-7-6-0-0-0-0-|hit D string softly
Ab:-5h7-------7p5-----5-9p7---------------|
Eb:---------------------------------------|
   
  1 Time before chorus
Gb:-------------------------------|
Db:-----9-7-6-----7-6-------9-7-6-|
Ab:-5h7-------7p5-----5-9p7-------|
Eb:-------------------------------|

Gb:---------------------------------------------|
Db:---------------------------------------------|
Ab:-5-5-5-5-5-5-5-5-5-5-5-5-5-5-5-5-5-5-7-7-----|
Eb:-----------------------------------------5-5-|

   1 Time
Gb:-------------------------------|
Db:-------------------------------|
Ab:-----------------------0h7-7-7-|
Eb:-7-0h7-0h7-0h7-0h5-0h5---------|

   7 Times
Gb:---------------------------------|
Db:---------------------------------|
Ab:-------------------------0h7-7-7-|
Eb:-0h7-0h7-0h7-0h7-0h5-0h5---------|

  play until the song fades out
Gb:-----7-------9---7-6-4---|
Db:-------7-7h9---9-0~----7-|
Ab:-9p7---------------------|
Eb:-------------------------|

Fuente: tusacordes.com