a b c d e f g h i j k l m n o p q r s t u v w x y z 0-9

Letterbomb

Green Day

			
LETTERBOMB
Green Day
from "American Idiot" 2004

Intro					        
e|-----------------|-----------------|-----------------|-----------------|
B|-----------------|-----------------|-----------------|-----------------|
G|-9-9-9-9-9-9-9-9-|-9-9-9-9-9-9-9-9-|-9-9-9-9-9-9-9-9-|-9-9-9-9-9-9-9-9-|
D|-x-x-x-x-x-x-x-x-|-x-x-x-x-x-x-x-x-|-x-x-x-x-x-x-x-x-|-x-x-x-x-x-x-x-x-|
A|-7-7-7-7-7-7-7-7-|-7-7-7-7-7-7-7-7-|-7-7-7-7-7-7-7-7-|-7-7-7-7-7-7-7-7-|
E|-----------------|-----------------|-----------------|-----------------|

e|-----------------|-----------------|-----------------|-----------------|
B|-----------------|-----------------|-----------------|-----------------|
G|-9-9-9-9-9-9-9-9-|-9-9-9-9-9-9-9-9-|-8-8-8-8-8-8-8-8-|-8-8-8-8-8-8-8-8-|
D|-x-x-x-x-x-x-x-x-|-x-x-x-x-x-x-x-x-|-x-x-x-x-x-x-x-x-|-x-x-x-x-x-x-x-x-|
A|-7-7-7-7-7-7-7-7-|-7-7-7-7-7-7-7-7-|-6-6-6-6-6-6-6-6-|-6-6-6-6-6-6-6-6-|
E|-----------------|-----------------|-----------------|-----------------|

e|-----------------|-----------------|-----------------|-----------------|
B|-----------------|-----------------|-----------------|-----------------|
G|-9-9-9-9-9-9-9-9-|-9-9-9-9-9-9-9-9-|-9-9-9-9-9-9-9-9-|-9-9-9-9-9-9-9-9-|
D|-x-x-x-x-x-x-x-x-|-x-x-x-x-x-x-x-x-|-x-x-x-x-x-x-x-x-|-x-x-x-x-x-x-x-x-|
A|-7-7-7-7-7-7-7-7-|-7-7-7-7-7-7-7-7-|-7-7-7-7-7-7-7-7-|-7-7-7-7-7-7-7-7-|
E|-----------------|-----------------|-----------------|-----------------|

   E5                      G#5                  C#5                  A5
e|-----------------------------------------------------------------------|
B|-----------------------------------------------------------------------|
G|----------------------------------------------6-6-6-6-6-6-6-6-6-6------| 
D|-9\-2-2-2-2-2-2-2-2-2-2--6-6-6-6-6-6-6-6-6-6--6-6-6-6-6-6-6-6-6-6--7-7-|
A|-9\-2-2-2-2-2-2-2-2-2-2--6-6-6-6-6-6-6-6-6-6--4-4-4-4-4-4-4-4-4-4--7-7-|
E|-7\-0-0-0-0-0-0-0-0-0-0--4-4-4-4-4-4-4-4-4-4-----------------------5-5-|

e|-----------------------------------------------------------------------|
B|-----------------------------------------------------------------------|
G|-----------------------------------------------------------------------| 
D|-7-7-7-7-7-7-7---------------------------------------------------------|
A|-7-7-7-7-7-7-7---------------------------------------------------------|
E|-5-5-5-5-5-5-5---------------------------------------------------------|

Verse
   E5                 A5               F#5      A5      E
e|-------------------------------------------------------------------0---|
B|-----------------------------------------------------------------0-0---|
G|------------------------------------------------------------1-1--1-1-1-|
D|-2-2-2-2-2-2-2-2-2--7-7-7-7-7-7-7-7--4-4-4-4--7-7-7-7--2-2--2-2--2-2-2-|
A|-2-2-2-2-2-2-2-2-2--7-7-7-7-7-7-7-7--4-4-4-4--7-7-7-7--2-2--2-2--2-2-2-|
E|-0-0-0-0-0-0-0-0-0--5-5-5-5-5-5-5-5--2-2-2-2--5-5-5-5--0-0--0-0--0-0-0-|
Palm Mute-----------|

              G#5      C#5        G#5      C#5        A5       F#5
e|-----------------------------------------------------------------------|
B|-----------------------------------------------------------------------|
G|---------------------6-6-6-6-6-----------6-6-6-6-6---------------------|
D|-2-2-2-2-2--6-6-6-6--6-6-6-6-6--6-6-6-6--6-6-6-6-6--7-7-7-7--4-4-4-4---|
A|-2-2-2-2-2--6-6-6-6--4-4-4-4-4--6-6-6-6--4-4-4-4-4--7-7-7-7--4-4-4-4---|
E|-0-0-0-0-0--4-4-4-4-------------4-4-4-4-------------5-5-5-5--2-2-2-2---|

    B5 A5  E5 B5
e|---------------|
B|---------------|
G|--4--2---------|
D|--4--2---2--9--|
A|--2--0---2--9--|
E|---------0--7--|

repeat verse. 2nd time repeat last bar three times.


Pre chorus 
   A5                      E5  A5                      E5  B5
e|---------------------------|---------------------------|-------------------|
B|---------------------------|---------------------------|-------------------|
G|-2-2-2-2-2-2-2-2-2--2-2----|-2-2-2-2-2-2-2-2-2--2-2----|-4-4-4-4-4-4-4-4-4-|
D|-2-2-2-2-2-2-2-2-2--2-2--2-|-2-2-2-2-2-2-2-2-2--2-2--2-|-4-4-4-4-4-4-4-4-4-|
A|-0-0-0-0-0-0-0-0-0--0-0--2-|-0-0-0-0-0-0-0-0-0--0-0--2-|-2-2-2-2-2-2-2-2-2-|
E|-------------------------0-|-------------------------0-|-------------------|
 
   B5   E5  B5       E5 B5 E5 B5                        
e|--------|--------------------|
B|--------|--------------------|
G|-4-4----|-4-4-4-4-4---4---4--|
D|-4-4--2-|-4-4-4-4-4-2-4-2-4--|
A|-2-2--2-|-2-2-2-2-2-2-2-2-2--|
E|------0-|-----------0---0----|


Chorus
It's not over till you're underground...
   E5  B5  A5      E5  B5  A5  
e|-----------------------------|
B|-----------------------------|
G|-9---------------9-----------|
D|-9---9---7-------9---9---7---|
A|-7---9---7-------7---9---7---|
E|-----7---5-----------7---5---|

   E5  B5  A5 C5   E5  B5  A5   
e|-----------------------------|
B|-----------------------------|
G|-9---------------9-----------|
D|-9---9---7--10---9---9---7---|
A|-7---9---7--10---7---9---7---|
E|-----7---5--8--------7---5---|

Well there is nothing left to analyze...
   F#5     A
e|-------------|
B|-------------|
G|-------------|
D|--4------7---|
A|--4------7---|
E|--2------5---|


Guitar 1                           Where will all the...
e|------------------------------------------------------|
B|------------------------------------------------------|
G|-9-9-9-9-9-9-9-9--9-9-9-9-9-9-9-9--9-9-9-9-9-9-9-9----| 
D|------------------------------------------------------|
A|-7-7-7-7-7-7-7-7--7-7-7-7-7-7-7-7--7-7-7-7-7-7-7-7----|
E|------------------------------------------------------|

Guitar 2
e|------------------------------------------------------|
B|-----------------------------------9-----9-----9------|
G|--------------------------------------9-----9----9----|
D|------------------------------------------------------|
A|------------------------------------------------------|
E|------------------------------------------------------|

Guitar 1
e|------------------------------------------------------|
B|------------------------------------------------------|
G|-8-8-8-8-8-8-8-8--9-9-8-4-4-6-6-8--9-9-8-9-9----------|
D|------------------------------------------------------|
A|-6-6-6-6-6-6-6-6--7-7-6-2-2-4-4-6--7-7-6-7-7----------|
E|---------------------------------------------/////////|
                                               ^pick-slide
Guitar 2
e|------------------------------------------------------|
B|-9-----9-----9----9-----9-----9----10----10----10-----|
G|----8-----8----8-----8-----8----8-----8-----8----8----|
D|------------------------------------------------------|
A|------------------------------------------------------|
E|------------------------------------------------------|



    E5              G#5             C#5       A      
e|------------------------------------------------------|
B|------------------------------------------------------|
G|----------------------------------6-------------------| 
D|--2---------------6---------------6---------7---------|
A|--2---------------6---------------4---------7---------|
E|--0---------------4-------------------------5---------|   


  
Guitar 1                          Well don't look back...
    E5              G#5               
e|------------------------------------------------------|
B|------------------------------------------------------|
G|----------------------------------9-8-4-8--9-8-4-4----| 
D|--2---------------6-----------------------------------|
A|--2---------------6---------------7-6-2-6--7-6-2-2----|
E|--0---------------4-----------------------------------|

Guitar 2
e|------------------------------------------------------|
B|------------------------------------------------------|
G|-9---9---9---9-9--8-8-8h9p8-8-6-4---------------------|
D|---9---9---9--9---------------------------------------|
A|------------------------------------------------------|
E|------------------------------------------------------|



ending

Guitar 1
e|------------------------------------------------------|
B|------------------------------------------------------|
G|------------------------------------------------------|
D|-2------22-------2--------22------2------22--------2--|
A|-2------22-------2--------22------2------22--------2--|
E|-0------00-------0--------00------0------00--------0--|
                                                     let ring
Guitar 2
e|------------------------------------------------------|
B|------------------------------------------------------|
G|-9-9-9-9-9-9-9-9-9-9-9-9-9-9-9-9-9-9-9-9-9-9-9-9-9-9--|
D|------------------------------------------------------|
A|-7-7-7-7-7-7-7-7-7-7-7-7-7-7-7-7-7-7-7-7-7-7-7-7-7-7--|
E|------------------------------------------------------|
                                         

Fuente: Lacuerda