a b c d e f g h i j k l m n o p q r s t u v w x y z 0-9

Letterbomb

Green Day

A
E
C
			
 ------------------------------------------------------------
 Letterbomb - Green Day
------------------------------------------------------------


This song is tabbed out straight through.

e|------------------------------------------------------|
B|------------------------------------------------------|
G|-9-9-9-9-9-9-9-9--9-9-9-9-9-9-9-9--9-9-9-9-9-9-9-9----|
D|------------------------------------------------------|
A|-7-7-7-7-7-7-7-7--7-7-7-7-7-7-7-7--7-7-7-7-7-7-7-7----|
E|------------------------------------------------------|

e|------------------------------------------------------|
B|------------------------------------------------------|
G|-8-8-8-8-8-8-8-8--9-9-9-9-9-9-9-9--9-9-9-9-9-9-9-9----|
D|------------------------------------------------------|
A|-6-6-6-6-6-6-6-6--7-7-7-7-7-7-7-7--7-7-7-7-7-7-7-7----|
E|------------------------------------------------------|

    E5     G#5    C#5    A 
e|---------------------------|
B|---------------------------|
G|----------------6----------| 
D|--2------6------6------7---|
A|--2------6------4------7---|
E|--0------4-------------5---|


[Where have all the bastards gone...]
   E5 [PM] A5   F#5 A5  E          G#5 C#5 G#5 C#5 A5 E5        
e|-------------------------------------------------------|
B|-------------------------------------------------------|
G|----------------------11-22-11-------6-------6---------|
D|-2-------7----4---7---22-22-22---6---6---6---6---7--4--|
A|-2-------7----4---7---22-22-22---6---4---6---4---7--4--|
E|-0-------5----2---5---00-00-00---4-------4-------5--2--|

    B5      B5  
e|-------------|
B|-------------|
G|-------------|
D|--9--7/8--9--|
A|--9--7/8--9--|
E|--7--5/6--7--|


[Where have all the riots gone...]
    E5 [PM]A5   F#5 A5  E          G#5 C#5 G#5 C#5 A5 E5   
e|-------------------------------------------------------|
B|-------------------------------------------------------|
G|----------------------11-22-11-------6-------6---------|
D|-2-------7----4---7---22-22-22---6---6---6---6---7--4--|
A|-2-------7----4---7---22-22-22---6---4---6---4---7--4--|
E|-0-------5----2---5---00-00-00---4-------4-------5--2--|

    B5                  
e|------------------------------------|
B|------------------------------------|
G|------------------------------------|
D|-9--7/8--999---7/8--999---7/8--999--|
A|-9--7/8--999---7/8--999---7/8--999--|
E|-7--5/6--777---5/6--777---5/6--777--|
 
 
[The television's an obstructionist...]
   A5                        B5          
e|----------------------------------------------------|
B|----------------------------------------------------|
G|----------------------------------------------------|
D|--77777-6/7-77777--6/9-99999--7/9-9999-7/9-99-7/9---|
A|--77777-6/7-77777--6/9-99999--7/9-9999-7/9-99-7/9---|
E|--55555-4/5-55555--4/7-77777--5/7-7777-5/7-77-5/7---|
                         
            
[It's not over till you're underground...]
   E5  B5  A5      E5  B5  A5  
e|-----------------------------|
B|-----------------------------|
G|-9---------------9-----------|
D|-9---9---7-------9---9---7---|
A|-7---9---7-------7---9---7---|
E|-----7---5-----------7---5---|

   E5  B5  A5 F5   E5  B5  A5   
e|-----------------------------|
B|-----------------------------|
G|-9----------10---9-----------|
D|-9---9---7--10---9---9---7---|
A|-7---9---7--8----7---9---7---|
E|-----7---5--8--------7---5---|

[Well there is nothing left to analyze...]
   F#5     A 
e|-------------|
B|-------------|
G|-------------|
D|--4------7---|
A|--4------7---|
E|--2------5---|


Guitar 1                           [Where will all the...]
e|------------------------------------------------------|
B|------------------------------------------------------|
G|-9-9-9-9-9-9-9-9--9-9-9-9-9-9-9-9--9-9-9-9-9-9-9-9----| 
D|------------------------------------------------------|
A|-7-7-7-7-7-7-7-7--7-7-7-7-7-7-7-7--7-7-7-7-7-7-7-7----|
E|------------------------------------------------------|

Guitar 2
e|------------------------------------------------------|
B|-----------------------------------9-----9-----9------|
G|--------------------------------------9-----9----9----|
D|------------------------------------------------------|
A|------------------------------------------------------|
E|------------------------------------------------------|

Guitar 1
e|------------------------------------------------------|
B|------------------------------------------------------|
G|-8-8-8-8-8-8-8-8--9-9-8-4-4-6-6-8--9-9-8-9-9----------|
D|------------------------------------------------------|
A|-6-6-6-6-6-6-6-6--7-7-6-2-2-4-4-6--7-7-6-7-7----------|
E|---------------------------------------------/////////|
                                               ^pick-slide
Guitar 2
e|------------------------------------------------------|
B|-7-----7-----7----9-----9-----9----10----10----10-----|
G|----8-----8----8-----9-----9----9-----9-----9----9----|
D|------------------------------------------------------|
A|------------------------------------------------------|
E|------------------------------------------------------|



    E5              G#5             C#5       A      
e|------------------------------------------------------|
B|------------------------------------------------------|
G|----------------------------------6-------------------| 
D|--2---------------6---------------6---------7---------|
A|--2---------------6---------------4---------7---------|
E|--0---------------4-------------------------5---------|   


  
Guitar 1                          [Well don't look back...]
    E5              G#5               
e|------------------------------------------------------|
B|------------------------------------------------------|
G|----------------------------------9-8-4-8--9-8-4-4----| 
D|--2---------------6-----------------------------------|
A|--2---------------6---------------7-6-2-6--7-6-2-2----|
E|--0---------------4-----------------------------------|

Guitar 2
e|------------------------------------------------------|
B|------------------------------------------------------|
G|-9---9---9---9-9--8-8-8h9p8-8-6-4---------------------|
D|---9---9---9--9---------------------------------------|
A|------------------------------------------------------|
E|------------------------------------------------------|



[You're not the Jesus of Suburbia...]
    B5                  A5      B5
e|-------------------------------------------------|
B|-------------------------------------------------|
G|-------------------------------------------------|
D|--9-7/9-99--7/9-99--6/7-77--6/9-99--7/9-9-7/9----|
A|--9-7/9-99--7/9-99--6/7-77--6/9-99--7/9-9-7/9----|
E|--7-5/7-77--5/7-77--4/5-55--4/7-77--5/7-7-5/7----|
                                             
                                
[It's not over till you're underground...]
   E5  B5  A5      E5  B5  A5  
e|-----------------------------|
B|-----------------------------|
G|-9---------------9-----------|
D|-9---9---7-------9---9---7---|
A|-7---9---7-------7---9---7---|
E|-----7---5-----------7---5---|

   E5  B5  A5 F5   E5  B5  A5   
e|-----------------------------|
B|-----------------------------|
G|-9----------10---9-----------|
D|-9---9---7--10---9---9---7---|
A|-7---9---7--8----7---9---7---|
E|-----7---5--8--------7---5---| 


[She said I can't take this place...]
    E5     G#5    C#5    A 
e|---------------------------|
B|---------------------------|
G|----------------6----------| 
D|--2------6------6------7---|
A|--2------6------4------7---|
E|--0------4-------------5---|

[Well she said I can't take this town...]
    E5     G#5    C#5    A 
e|---------------------------|
B|---------------------------|
G|----------------6----------| 
D|--2------6------6------7---|
A|--2------6------4------7---|
E|--0------4-------------5---|



Guitar 1
e|------------------------------------------------------|
B|------------------------------------------------------|
G|------------------------------------------------------|
D|-2------22-------2--------22------2------22--------2--|
A|-2------22-------2--------22------2------22--------2--|
E|-0------00-------0--------00------0------00--------0--|
                                                     [let ring]
Guitar 2
e|------------------------------------------------------|
B|------------------------------------------------------|
G|-9-9-9-9-9-9-9-9-9-9-9-9-9-9-9-9-9-9-9-9-9-9-9-9-9-9--|
D|------------------------------------------------------|
A|-7-7-7-7-7-7-7-7-7-7-7-7-7-7-7-7-7-7-7-7-7-7-7-7-7-7--|
E|------------------------------------------------------|
                                                     [let ring]

Lyrics: 

No body likes you
Everyone left you
They're all out without you
Having fun

Where have all the bastards gone?
The underbelly stacks up ten high
The dummy failed the crash test
Collecting unemployment checks
Like a flunkie only along for the ride

Where have all the riots gone?
As the city's motto gets pulverized
"What's in love is now in debt"
On your birth certificate
So strike the fucking match to light this fuse

The town bishop is an extortionist
And he don't even know that you exist.
Standin' still when it's C or die
You better run for your fucking life

It's not over 'till you're underground
It's not over before it's too late
This city's burning.  "It's not my burden"
It's not over before it's too late

There is nothing left to analyze

Where will all the martyrs go when the virus cures itself?
And where we will all go when it's too late?

Well don't look back

You're not the Jesus of Suburbia
The St. Jimmy is a figment of
Your father's rage and your mother's love
Made me the idiot America

It's not over 'till you're underground
It's not over before it's too late
This city's burning.  "It's not my burden"
It's not over before it's too late

She said, "I can't take this place
I'm leaving it behind."
Well she said, "I can't take this town 
I'm leaving you tonight."


 

Fuente: Lacuerda