a b c d e f g h i j k l m n o p q r s t u v w x y z 0-9

Know Your Enemy

Green Day

			
Hola amantes de green day!!! aqui os dejo cn la cancion de know your enemy!! que os gustee!!


Intro
G|---------9-9--------------------9-9---------------------9-9-----------|----------------------||
D|-9---9--9-9--9-9-X---X-9-9--9-9--9-9--7---9---9--9-9--9-9-X-X|4-4-4-4-4-4-4-4-4-||
A|-9---9--7-7--9-9-X---X-9-9--7-7--9-9--7---9---9--7-7--9-9-X-X|4-4-4-4-4-4-4-4-4-||
E|-7---7--------7-7-X---X-7-7--------7-7--5---7---7--------7-7-X-X|2-2-2-2-2-2-2-2-2-||

El intro se repite durante toda la canción.




Bridge 1ª y 2ª guitarra


e|------------------|------------------|------------------|------------------||
B|------------------|------------------|------------------|------------------||
G|-9-9-9-9-9-9-9----|---------------------|-9-9-9-9-9-9-9----|---------------------||
D|-9-9-9-9-9-9-9-9--|-9-9-9-9-9-9-9---|-9-9-9-9-9-9-9-9--|-9-9-9-9-9-9-9---||
A|-7-7-7-7-7-7-7-9--|-9-9-9-9-9-9-9---|-7-7-7-7-7-7-7-9--|-9-9-9-9-9-9-9---||
E|------------------7--|-7-7-7-7-7-7-7---|-------------------7--|-7-7-7-7-7-7-7---||  


e|------------------|------------------||
B|------------------|------------------||
G|-9-9-9-9-9-9-9----|-----------------||
D|-9-9-9-9-9-9-9-9--|-9-9-9-9-9-9-9---||
A|-7-7-7-7-7-7-7-9--|-9-9-9-9-9-9-9---||
E|-------------------7--|-7-7-7-7-7-7-7---||  

3ª guitarra
e|-----7-------7----|---------7--------|-----7-------7----|---------7--------||
B|-5-5---5-5-4------|-----7-----7------|-5-5---5-5-4------|-----7-----7------||
G|---------------4--|-4-4---4-----4-4--|---------------4--|-4-4---4-----4-4--||
D|------------------|------------------|------------------|------------------||
A|------------------|------------------|------------------|------------------||
E|------------------|------------------|------------------|------------------||  


e|-----7-------7----|---------7--------||
B|-5-5---5-5-4------|-----7-----7------||
G|---------------4--|-4-4---4-----4-4--||
D|------------------|------------------||
A|------------------|------------------||
E|------------------|------------------||

-----------------------------------------------------------------------|
Verso al final del Bridge

e|------------------|------------------||
B|------------------|------------------||
G|--------4-4---------|---------4-4--------||
D|-4---4-4-4-4-4-X--|-X-4-4-4-4-4-4-0--||
A|-4---4-2-2-4-4-X--|-X-4-4-2-2-4-4-0--||
E|-2---2------2-2-X--|-X-2-2------2-2-0--||  



-----------------------------------------------------------------------|
Solo + Verso
1ª y 2ª guitarra


e|------------------|------------------|------------------|------------------||
B|------------------|------------------|------------------|------------------||
G|-9-9-9-9-9-9-9----|---------------------|-9-9-9-9-9-9-9----|--------------------||
D|-9-9-9-9-9-9-9-9--|-9-9-9-9-9-9-9---|-9-9-9-9-9-9-9-9--|-9-9-9-9-9-9-9---||
A|-7-7-7-7-7-7-7-9--|-9-9-9-9-9-9-9---|-7-7-7-7-7-7-7-9--|-9-9-9-9-9-9-9---||
E|------------------7--|-7-7-7-7-7-7-7----|------------------7--|-7-7-7-7-7-7-7---||  
                                                      
e|------------------|------------------||------------------|------------------||
B|------------------|------------------||------------------|------------------||
G|-9-9-9-9-9-9-9----|---------------------||------------------|------------------||
D|-9-9-9-9-9-9-9-9--|-9-9-9-9-9-9-9---||-4---4-4-4-4-4-X--|-X-4-4-4-4-4-4-4--||
A|-7-7-7-7-7-7-7-9--|-9-9-9-9-9-9-9---||-4---4-2-2-4-4-X--|-X-4-4-2-2-4-4-2--||
E|------------------7--|-7-7-7-7-7-7-7---||-2---2-2-2-2-2-X--|-X-2-2-2-2-2-2-2--||

e|------------------|------------------||
B|------------------|------------------||
G|------------------|------------------||
D|-4---4-4-4-4-4-X--|-X-4-4-4-4-4-4-4--||
A|-4---4-2-2-4-4-X--|-X-4-4-2-2-4-4-4--||
E|-2---2-2-2-2-2-X--|-X-2-2-2-2-2-2-2--||  

Solo 3ª guitarra

E|--------------------------------------11------------------------------|
B|-12-12-12-----12-12----------12----12----12------12-12-12----12-12-12------|
G|----------11--------11-11-11----11----------11~-----------11----------11---|
D|---------------------------------------------------------------------------|
A|---------------------------------------------------------------------------|
E|---------------------------------------------------------------------------|

E|------------------------------------------------------------11-------------|
B|-14-14-14----14-14---14-12-12-12----12-12----------12----12----12----------|
G|----------11-------11------------11-------11-11-11----11----------11~------|
D|---------------------------------------------------------------------------|
A|---------------------------------------------------------------------------|
E|---------------------------------------------------------------------------|

e|---------------------------------------------------------------------------|
B|--12-12-12----12-12-12----14-14-14----14-14----14~-------12---12-----------|
G|-----------11----------11----------11-------11-------9-9----9----9-8-4-----|
D|---------------------------------------------------------------------------|
A|---------------------------------------------------------------------------|
E|---------------------------------------------------------------------------|

E|-------7-------------------------------7-----------------------------------|
B|---7-----7---------12---12---------7-----7---------12---12---------7-------|
G|-4---4-----4~--9-9----9----9-8-4--4--4-----4~--9-9----9----9-8-4-4---4-----|
D|---------------------------------------------------------------------------|
A|---------------------------------------------------------------------------|
E|---------------------------------------------------------------------------|

e|-7-------------------------------------------------------------------------|
B|---7------7~---------------------------------------------------------------|
G|-----4~--------------------------------------------------------------------|
D|---------------------------------------------------------------------------|
A|---------------------------------------------------------------------------|
E|---------------------------------------------------------------------------|


Verso x4 

e|------------------------------------||
B|------------------------------------||
G|--------4-4----------------4-4----||
D|-4---4-4-4-4-4-X-X-4-4-4-4-4-4-4--||
A|-4---4-2-2-4-4-X-X-4-4-2-2-4-4-4--||
E|-2---2------2-2-X-X-2-2------2-2-2--||  




-----------------------------------------------------------------------|
Interlude


e|------------------------------------------------------------------------||
B|------------------------------------------------------------------------||
G|--------9-9----------------9-9------------------9-9----------------9-9--------||
D|-9---9-9-9-9-9-X-X-9-9-9-9-9-9-7---9---9-9-9-9-9-X-X-9-9-9-9-9-9-7--||
A|-9---9-7-7-9-9-X-X-9-9-7-7-9-9-7---9---9-7-7-9-9-X-X-9-9-7-7-9-9-7--||
E|-7---7-----7-7--X-X-7-7------7-7-5---7---7------7-7-X-X-7-7------7-7-5--||  

e|-----------------------------------------------------------------------------||
B|-----------------------------------------------------------------------------||
G|--------9-9----------------9-9-----------------9-9--------|------------------||
D|-9---9-9-9-9-9-X-X-9-9-9-9-9-9-7---9---9-9-9-9-9-X-X-|-4-4-4-4-4-4-4-4--||
A|-9---9-7-7-9-9-X-X-9-9-7-7-9-9-7---9---9-7-7-9-9-X-X-|-4-4-4-4-4-4-4-4--||
E|-7---7------7-7-X-X-7-7------7-7-5---7---7------7-7-X-X-|-2-2-2-2-2-2-2-2--||  

e|------------------|------------------|------------------|------------------||
B|------------------|------------------|------------------|------------------||
G|--------9-9------------------9-9------------------9-9--------|------------------||
D|-9---9-9-9-9-9-X---X-9-9-9-9-9-9-7---9---9-9-9-9-9-X-X-|-4-4-4-4-4-4-4///-||
A|-9---9-7-7-9-9-X---X-9-9-7-7-9-9-7---9---9-7-7-9-9-X-X-|-4-4-4-4-4-4-4///-||
E|-7---7------7-7-X---X-7-7------7-7-5---7---7------7-7-X-X-|-2-2-2-2-2-2-2///-||  
   
e|------------------|------------------|------------------|------------------||
B|------------------|------------------|------------------|------------------||
G|--------9-9----------------9-9------------------9-9--------|------------||
D|-9---9-9-9-9-9-X-X-9-9-9-9-9-9-7---9---9-9-9-9-9---|-4-4-4-4-4-4-4-4--||
A|-9---9-7-7-9-9-X-X-9-9-7-7-9-9-7---9---9-7-7-9-9---|-4-4-4-4-4-4-4-4--||
E|-7---7------7-7-X-X-7-7------7-7-5---7---7------7-7---|-2-2-2-2-2-2-2-2--||  

-----------------------------------------------------------------------|
Otro

1ª y 2ªguitarra
e|------------------|------------------|------------------|------------------||
B|------------------|------------------|------------------|------------------||
G|--------9-9----------------9-9------------------9-9--------|------------------||
D|-9---9-9-9-9-9-X-X-9-9-9-9-9-9-7---9---9-9-9-9-9---|-4-4-4-4-4-4-4///-||
A|-9---9-7-7-9-9-X-X-9-9-7-7-9-9-7---9---9-7-7-9-9---|-4-4-4-4-4-4-4///-||
E|-7---7------7-7-X-X-7-7------7-7-5---7---7------7-7---|-2-2-2-2-2-2-2///-||  
   

e|------------------|------------------|------------------|------------------||
B|------------------|------------------|------------------|------------------||
G|--------9-9----------------9-9------------------9-9--------|------------------||
D|-9---9-9-9-9-9-X-X-9-9-9-9-9-9-7---9---9-9-9-9-9---|-4-4-4-4-4-4-4-4--||
A|-9---9-7-7-9-9-X-X-9-9-7-7-9-9-7---9---9-7-7-9-9---|-4-4-4-4-4-4-4-4--||
E|-7---7------7-7-X-X-7-7------7-7-5---7---7------7-7---|-2-2-2-2-2-2-2-2--||  

3ª guitarra


E|--------------------------------------11------------------------------|
B|-12-12-12-----12-12----------12----12----12------12-12-12----12-12-12------|
G|----------11--------11-11-11----11----------11~-----------11----------11---|
D|---------------------------------------------------------------------------|
A|---------------------------------------------------------------------------|
E|---------------------------------------------------------------------------|

E|------------------------------------------------------------11-------------|
B|-14-14-14----14-14---14-12-12-12----12-12----------12----12----12----------|
G|----------11-------11------------11-------11-11-11----11----------11~------|
D|---------------------------------------------------------------------------|
A|---------------------------------------------------------------------------|
E|---------------------------------------------------------------------------|

e|---------------------------------------------------------------------------|
B|--12-12-12----12-12-12----14-14-14----14-14----14~-------12---12-----------
G|-----------11----------11----------11-------11-------9-9----9----9-8-4-----|
D|---------------------------------------------------------------------------|
A|---------------------------------------------------------------------------|
E|---------------------------------------------------------------------------|


1ªy 2ª guitarra

e|------------------||
B|------------------||
G|------------------||
D|-9----------------||
A|-9----------------||
E|-7----------------||

3ªguitarra
e|-7----------------||
B|------------------||
G|------------------||
D|------------------||
A|------------------||
E|------------------||

Fuente: Tusacordes