a b c d e f g h i j k l m n o p q r s t u v w x y z 0-9

Know Your Enemy

Green Day

			
e------------------------------------    e--------------
b------------------------------------    b--------------
G------9-9----------------9-9--------    g--------------
D-9-9--9-9--9-9--xx--9-9--9-9--9-9---x3  D-4444444444---
A-9-9--7-7--9-9--xx--9-9--7-7--9-9---    A-4444444444---
E-7-7-------7-7--xx--7-7-------7-7---    E-2222222222---
E|--------------------------------------11------------------------------|
B|-12-12-12-----12-12----------12----12----12------12-12-12----12-12-12------|
G|----------11--------11-11-11----11----------11~-----------11----------11---|
D|---------------------------------------------------------------------------|
A|---------------------------------------------------------------------------|
E|---------------------------------------------------------------------------|

E|------------------------------------------------------------11-------------|
B|-14-14-14----14-14---14-12-12-12----12-12----------12----12----12----------|
G|----------11-------11------------11-------11-11-11----11----------11~------|
D|---------------------------------------------------------------------------|
A|---------------------------------------------------------------------------|
E|---------------------------------------------------------------------------|

e|---------------------------------------------------------------------------|
B|--12-12-12----12-12-12----14-14-14----14-14----14~-------12---12-----------|
G|-----------11----------11----------11-------11-------9-9----9----9-8-4-----|
D|---------------------------------------------------------------------------|
A|---------------------------------------------------------------------------|
E|---------------------------------------------------------------------------|

E|-------7-------------------------------7-----------------------------------|
B|---7-----7---------12---12---------7-----7---------12---12---------7-------|
G|-4---4-----4~--9-9----9----9-8-4--4--4-----4~--9-9----9----9-8-4-4---4-----|
D|---------------------------------------------------------------------------|
A|---------------------------------------------------------------------------|
E|---------------------------------------------------------------------------|

e|-7-------------------------------------------------------------------------|
B|---7------7~---------------------------------------------------------------|
G|-----4~--------------------------------------------------------------------|
D|---------------------------------------------------------------------------|
A|---------------------------------------------------------------------------|
E|---------------------------------------------------------------------------|

Fuente: tusacordes.com