a b c d e f g h i j k l m n o p q r s t u v w x y z 0-9

Jesus Of Suburbia

Green Day

			
Jesus Of Suburbia Tab by Green Day, www.Ultimate-Guitar.Com

 Complimentary "Jesus Of Suburbia" ringtone 
 |-------------------------------------------------|
 | Green Day                                       |
 |-------------------------------------------------| 
 | Jesus Of Suburbia                               |
 |-------------------------------------------------|
 | American Idiot 2005                           |
 |-------------------------------------------------|
 | Tabbed By Donkey Fly       2005               |
 |-------------------------------------------------|
 | thedonkeyfly@hotmail.com                        |
 |-------------------------------------------------|

Ok , this took hours to type up so it better be accepted!, i'd say its very
accurate.....this is the RIGHT ONE.....my other one was wrong.....
i've even put lyrics and order of play down at the bottom for you.
enjoy it!


|-----------|-------------------|
|Part 1     | Jesus Of Suburbia |
|-----------|-------------------|

Intro

E|----------------------------------------------------------------||
B|----------------------------------------------------------------||
G|--6-6-6-6-------------------------------------------------------||
D|--6-6-6-6--8-8-8-8----------------------------------------------||
A|--4-4-4-4--8-8-8-8--------444444444444444-666666666666666-------||
E|-----------6-6-6-6--------222222222222222-444444444444444-------||

1.Im the son of rage......
2.Soda pop and ritalin......
3.Get my television fix.....
4.To fall in love and fall in debt.....


Chorus

E|----------------------------------------------------------------||
B|----------------------------------------------------------------||
G|----------------------------------------------------------------||
D|----------------------------------------------------------------||
A|-44444-666666----44444-666666---44444-666666--------------------||
E|-22222-444444----22222-444444---22222-444444--------------------||

 And there's nothing wrong with me......

Bridge


E|----------------------------------------------------------------||
B|--66--------------66--------------------------------------------||
G|--66--------------66--------------------------------------------||
D|--66--------------66--------------------------------------------||
A|--44-666-4444444--44-666-4444444--------------------------------||
E|-----444-2222222-----444-2222222--------------------------------||

 
 Interlude

E|----------------------------------------------------------------||
B|--6-6-6-6-------------------------------------------------------||
G|--6-6-6-6-------------------------------------------------------||
D|--6-6-6-6------3-3-3-3------------------------------------------||
A|--4-4-4-4------3-3-3-3------------------------------------------||
E|---------------1-1-1-1------------------------------------------||





|-----------|--------------------|
|Part 2     | City Of The Damned |
|-----------|--------------------|


E|-6-6-6----------------------------------------------------------||
B|-6-6-6----------------------------------------------------------||
G|-6-6-6----------------------------------------------------------||
D|-8-8-8----------------------------------------------------------||
A|-8-8-8---6-6-6--4-------------/-6-------------------------------||
E|-6-6-6---4-4-4--2-------------/-4-------------------------------||



Verse  In 2 parts

Part 1

1. at the centre of the earth...........
3. i read the graffiti......



part 2

E|------------------------|---------------------------------------||
B|------------------------|---------------------------------------||
G|------------------------|---------------------------------------||
D|------------------------|---------------------------------------||
A|---4----4h6--4--3-------|--1------1h3--1------------------------||
E|------------------------|-----------------4-----------4-------||
 
2. it says home is where you heart......
3. didn't say much..........


E|----------------------------------------------------------------||
B|----------------------------------------------------------------||
G|----------------------------------------------------------------||
D|----------------------------------------------------------------||
A|--4-4-4-4-4-4-4-4--6-6-6-6-6-6-6-6------------------------------||
E|--2-2-2-2-2-2-2-2--4-4-4-4-4-4-4-4------------------------------||

1.the motto was just.........
2.and so it seemed..........
3.were beating out of......
4. and i could really care.....

Chorus


E|----------------------------------------------------------------||
B|------------------------6-6-6-6-6-------------------------------||
G|------------------------6-6-6-6-6-------------------------------||
D|------------------------6-6-6-6-6-------------------------------||
A|-8-8-8-8-8--8-8-8-8-8---4-4-4-4-4--4-4-4-4-4--------------------||
E|-6-6-6-6-6--4-4-4-4-4--------------2-2-2-2-2--------------------||

1. city of the dead.....
2. city of the damned....




E|----------------------------------------------------------------||
B|----------------------------------------------------------------||
G|----------------------------------------------------------------||
D|----------------------------------------------------------------||
A|--8-8-8-8---6-6-6-6---4-4-4-4-4-4-4-----------------------------||
E|--6-6-6-6---4-4-4-4---2-2-2-2-2-2-2-----------------------------||
  1. signs misleading to ....
  2. no one really seems.....


  interlude


E|----------------------------------------------------------------||
B|----------------------------------------------------------------||
G|-4-4-4-4-4-4-4-4-4-4-4-4-4-4-4-4-4-4-4-4-4-4-4-4-4-4-4-4-4-4----||
D|-4-4-4-4-4-4-4-4-4-4-4-4-4-4-4-4-4-4-4-4-4-4-4-4-4-4-4-4-4-4----||
A|-4-4-4-4-4-4-4-4-4-4-4-4-4-4-4-4-4-4-4-4-4-4-4-4-4-4-4-4-4-4----||
E|-2-2-2-2-2-2-2-2-2-2-2-2-2-2-2-2-2-2-2-2-2-2-2-2-2-2-2-2-2-2----||


|-----------|--------------------|
|Part 3     | I don't care       |
|-----------|--------------------|



E|------------------------------------------------------------------||
B|---------------------------6-4-2--7-7-7-7-7-7-6-4-2-4-4-4-4-9-----||
G|-----------6-6-6--------------------------------------------------||
D|-6-6-6-6-6-------6-6-6-6-6----------------------------------------||
A|--------------------------------------------------------------11\-||
E|------------------------------------------------------------------||


chorus

E|----------------------------------------------------------------||
B|----------------------------------------------------------------||
G|----------------------------------------------------------------||
D|------666------666------666-------------------------------------||
A|-6666-444-6666-444-4444-444-6666666666--------------------------||
E|-4444-----4444-----2222-----4444444444--------------------------||
   i dont care if you dont...........


E|----------------------------------------------------------------||
B|----------------------------------------------------------------||
G|----------------------------------------------------------------||
D|--6666666666---6------------------------------------------------||
A|--4444444444-7-6------------------------------------------------||
E|-------------5-4------------------------------------------------||
   i dont care_________________




verse
   
E|----------------------------------------------------------------||
B|----------------------------------------------------------------||
G|----------BASS-Db---------------------------------------------||
D|----------------------------------------------------7-6---------||
A|----------------------------------------------------7-6---------||
E|----------------------------------------------------5-4---------||

  everyone is so full of shit.........


Bridge



E|----------------------------------------------------------------||
B|----------------------------------------------------------------||
G|----------------------------------------------------------------||
D|------------------6---------------------------------------------||
A|-4444444--6666666-4-6-------------------------------------------||
E|-2222222--4444444---4-------------------------------------------||
   Land of make believe........


bridge 2
E|----------------------------------------------------------------||
B|----------------------------------------------------------------||
G|----------------------------------------------------------------||
D|-------66666666666----------------------------------------------||
A|--4--6-44444444444----------------------------------------------||
E|--2--4----------------------------------------------------------||
   and i dont care......whoo....whoo


   interlude
E|----------------------------------------------------------------||
B|---6----6----6----6---------------------------------------------||
G|---6----6----6----6---------------------------------------------||
D|---6----6----6----6------6--------------------------------------||
A|---4----4----4----4---6666--------------------------------------||
E|----------------------4444--------------------------------------||


|-----------|--------------------|
|Part 4     | Dearly Beloved     |
|-----------|--------------------|

Verse riff 1

E|------------------------------------------------------------------||
B|------------------------------------------------------------------||
G|---------5----6--------8------------------------------------------||
D|---6-----5----6---6----8------------------------------------------||
A|---6-----3----4---6----6------------------------------------------||
E|---4--------------4-----------------------------------------------||
 
 Dearly beloved are you..........

Verse riff 2

E|----------------------------------------------------------------||
B|----------------------------------------------------------------||
G|--------------------------5----5-----5----5---------------------||
D|----6----6----6----6------5----5-----5----5---- ----------------||
A|----6----6----6----6-----3----3----3----3-----------------------||
E|--4----4----4----4----------------------------------------------||
   xxxxxxxxxxxxxxxxxxxxxxxxxxxxxxxxxxxxxxxxxxxxxxxxxxxxxxxxxxxxxxxx

E|----------------------------------------------------------------||
B|----------------------------------------------------------------||
G|----6----6----6----6---------------8--8-------------------------||
D|----6----6----6----6-----6---6-----8--8-------------------------||
A|--4----4----4----4-------6---6---6---6--------------------------||
E|-----------------------4---4------------------------------------||
  xxxxxxxxxxxxxxxxxxxxxxxxxxxxxxxxxxxxxxxxxxxxxxxxxxxxxxxxxxxxxxxxx
  Are we demented...........(Played thorughout from now -PM'ed)

|-----------|--------------------------------|
|Part 5     | Tales of another broken home   |
|-----------|--------------------------------|





 Interlude
E|----------------------------------------------------------------||
B|----------------------------------------------------------------||
G|-----------------6----------------------------------------------||
D|---6-----------4-6----------------------------------------------||
A|---6-----------4-4----------------------------------------------||
E|---4-----------2------------------------------------------------||

Verse

E|----------------------------------------------------------------||
B|----------------------------------------------------------------||
G|---------------6------------------------------------------------||
D|-6666666666--4-6------------------------------------------------||
A|-6666666666--4-4------------------------------------------------||
E|-4444444444--2--------------------------------------------------||
   To live and not to breathe.........

chorus


E|--------------------------------------------------------------------||
B|--------------------------------------------------------------------||
G|---6-----6-----6---8-----8-----8------------------------------------||
D|---6--6--6--6--66--8--8--8--8--88-----------------------------------||
A|---4--6--4--6--46--6--8--6--8--68-----------------------------------||
E|------4-----4---4-----6-----6---6-----------------------------------||
  and i leave behind....


riff 1
E|----------------------------------------------------------------||
B|----------------------------------------------------------------||
G|----------------------------------------------------------------||
D|-8-8--8-8--8-8--8-8-----8-8--8-8--8-8--8-8----------------------||
A|-6-6--6-6--6-6--6-6-----6-6--6-6--6-6--6-6----------------------||
E|----------------------------------------------------------------||
   there is another guitar here playing the intro riff

solo  2 GUITARS

Guitar 2= rhythm..... starts of by playing main riff here

guitar 1
E|----------------------------------------------------------------||
B|----------------------------------------------------------------||
G|-8-6-10-6-8---6-5-3-6-3-5---8-6-10-6-8---6-5-3-6-3-5------------||
D|----------------------------------------------------------------||
A|----------------------------------------------------------------||
E|----------------------------------------------------------------||


guitar  2 plays chorus now!

guitar 1

E|----------------------------------------------------------------||
B|---5h/6-7p6-9p6-7p6-9p6-7p6-------------------------------------||
G|-----------6---6---6---6---6h/8---------------------------------||
D|----------------------------------------------------------------||
A|----------------------------------------------------------------||
E|----------------------------------------------------------------||

E|----------------------------------------------------------------||
B|-9p8-11p8-9p8-11p8-9p8------------------------------------------||
G|----8----8---8----8---8p\6--------------------------------------||
D|----------------------------------------------------------------||
A|----------------------------------------------------------------||
E|----------------------------------------------------------------||


E|----------------------------------------------------------------||
B|-7p6-9p6-7p6-9p6-7p6--------------------------------------------||
G|----6---6---6---6---6h/8----------------------------------------||
D|----------------------------------------------------------------||
A|----------------------------------------------------------------||
E|----------------------------------------------------------------||

E|----------------------------------------------------------------||
B|-9p8-11p8-9p8-11p8-9p8------------------------------------------||
G|----8----8---8----8---8-----------------------------------------||
D|----------------------------------------------------------------||
A|----------------------------------------------------------------||
E|----------------------------------------------------------------||

Bridge

Band Tacet-----Piano and vocals only
YOU CAN PLAY THESE AS MAJORS ON YOUR GUITAR IF YOU WANT

Fm          Eb           Ab        Db  
 i dont feel any shame i wont apologise
     Eb                           Ab
   when there aint nowhere you can go
 Db       Eb                Ab             Db 
  running away from pain when youve been victimized
              Eb
   tales from another broken....

Outro

E|----------------------------------------------------------------||
B|----------------------------------------------------------------||
G|---------------6------------------------------------------------||
D|-6666666666--4-6------------------------------------------------||
A|-6666666666--4-4------------------------------------------------||
E|-4444444444--2--------------------------------------------------||

Home_________      Your Leaving.........

riff 1
E|----------------------------------------------------------------||
B|----------------------------------------------------------------||
G|----------------------------------------------------------------||
D|-8-8--8-8--8-8--8-8-----8-8--8-8--8-8--8-8----------------------||
A|-6-6--6-6--6-6--6-6-----6-6--6-6--6-6--6-6----------------------||
E|----------------------------------------------------------------||
 ...Home?
E|----------------------------------------------------------------||
B|----------------------------------------------------------------||
G|----------------------------------------------------------------||
D|----------------6----------------6-6----------------------------||
A|-66666666666--4-4---6666666666-4-4-6----------------------------||
E|-44444444444--2-----4444444444-2---4----------------------------||


Order Of Play
-------------------
Jesus of suburbia
--------------------
Intro x2
chorus
bridge
intro x 2
chorus
bridge
intro x 2
outro
--------------------
City of the damned
--------------------
intro/ ending of Jesus of suburbia
verse p1
verse p2
chorus x 2
verse p1
verse p2
chorus
interlude
--------------------
i dont care
--------------------
intro
chorus x 4 then the 2nd bit of it 
verse  X 8
bridge x 4
bridge 2 x 4 
interlude x 1
----------------------
dearly beloved
---------------------
verse riff 1 x 1
verse riff 2 x 3 or 4

----------------------------
Tales of another broken home
-----------------------------
interlude x 4
verse x 8
chorus x 2
verse x 8
chorus x 2
riff 1 x 1
solo x 1
outro with riff 1 in x 1
------------------------------

Fuente: Lacuerda