a b c d e f g h i j k l m n o p q r s t u v w x y z 0-9

Jesus Of Suburbia (part. 2)

Green Day

			
 II.  City of the Damned

Intro:
   F#5   G#5
e|-----------|
B|-----------|  Se sigue con el ultimo F#5 del anterior
G|-----------|
D|-4-----6---|
A|-4-----6---|
E|-2-----4---|

Verso:
   C#5     A#5 G#5    F#5 G#5
e|----------------------------|
B|----------------------------|
G|-6---6----------------------|
D|-6---6---8---6------4---6---|
A|-4---3---8---6------4---6---|
E|---------6---4------2---4---|

Estribillo:
   A#5   G#5   C#5   F#5   A#5   G#5   F#5
e|-----------------------------------------|
B|-----------------------------------------|
G|-------------6---------------------------|
D|-8-----6-----6-----4-----8-----6-----4---|
A|-8-----6-----4-----4-----8-----6-----4---|
E|-6-----4-----------2-----6-----4-----2---|

Orden:

Intro
Verso x2
Estribillo
Verso x2
Ultimo acorde F#5 

Fuente: tusacordes.com