a b c d e f g h i j k l m n o p q r s t u v w x y z 0-9

I Want To Be Alone

Green Day

			
Intro
e|---------------------------------------------------------------------------|
B|---------------------------------------------------------------------------|
G|----2---0---2---0-----0-------0------0-------0-----------------------------|
D|--0---0---0---0-----0---0---0--0---0---0---0---0---------------------------|
A|------------------5-------3------5-------3---------------------------------|
E|---------------------------------------------------------------------------|
Verse
e|---------------------------------------------------------------------------|
B|---------------------------------------------------------------------------|
G|---------------------7-7-7-7-7---------------------------------------------|
D|-5-5-5-5-5-7-7-7-7-7-7-7-7-7-7-9-9-9-9-9-----------------------------------|
A|-5-5-5-5-5-7-7-7-7-7-5-5-5-5-5-9-9-9-9-9-----------------------------------|

Fuente: tusacordes.com