a b c d e f g h i j k l m n o p q r s t u v w x y z 0-9

Horseshoes And Handgrenades

Green Day

			
Intérprete: Green Day
Álbum: 21st Century Breakdown
Canción: Horseshoes And Handgrenades

Esta versión es para aquellos que no entendieron
la versión anterior simplificada que publiqué, aquí sale más
definida.

La canción solo tiene una guitarra
Guitarrista: Jason White 
Afinación: eBGDAE

INTRO/VERSO
|-----------------------|
|-----------------------| al principio frena
|-----7/9-9-------------| de resto se hace varias veces
|-9-9-7/9-9-7-7-7-4-4-4-| durante el intro y los versos.
|-9-9-5/7-7-7-7-7-4-4-4-|
|-7-7-------5-5-5-2-2-2-|

PRE-VERSE
|-------------------------------------------------|
|-------------------------------------------------|
|-4-4-4-4-4-4-4-4-7-7-7-7-7-7-7-7-9-9-9-9-9-9-9-9-|
|-x-x-x-x-x-x-x-x-x-x-x-x-x-x-x-x-x-x-x-x-x-x-x-x-|
|-2-2-2-2-2-2-2-2-5-5-5-5-5-5-5-5-7-7-7-7-7-7-7-7-|
|-------------------------------------------------|

|-------------------------|
|-------------------------|
|-12-12-12-12-12-12-12-12-|
|-x--x--x--x--x--x--x--x--|
|-10-10-10-10-10-10-10-10-|
|-------------------------|

CORO
|-------------------------------------------|
|-------------------------------------------|
|-9-9-9-9-9-9-9-9-9-9-9-9-9-9-9-9-9-9-9-9-9-|
|-9-9-9-9-9-9-9-9-9-9-9-9-9-9-9-9-9-9-9-9-9-|
|-7-7-7-7-7-7-7-7-7-7-7-7-7-7-7-7-7-7-7-7-7-|
|-------------------------------------------|

|-------------------------------------------|
|-------------------------------------------|
|-------------------------------------------|
|-9-9-9-9-9-9-9-9-9-9-9-9-9-9-9-9-9-9-7-7-7-|
|-9-9-9-9-9-9-9-9-9-9-9-9-9-9-9-9-9-9-7-7-7-|
|-7-7-7-7-7-7-7-7-7-7-7-7-7-7-7-7-7-7-5-5-5-|

|-------------------------------------------|
|-------------------------------------------|
|-9-9-9-9-9-9-9-9-9-9-9-9-9-9-9-9-9-9-9-9-9-|
|-9-9-9-9-9-9-9-9-9-9-9-9-9-9-9-9-9-9-9-9-9-|
|-7-7-7-7-7-7-7-7-7-7-7-7-7-7-7-7-7-7-7-7-7-|
|-------------------------------------------|

|-------------------------------------------|
|-------------------------------------------|
|-------------------------------------------|
|-4-4-4-4-4-4-4-4-4-4-4-4-4-4-4-4-4-4-4-4-4-|
|-4-4-4-4-4-4-4-4-4-4-4-4-4-4-4-4-4-4-4-4-4-|
|-2-2-2-2-2-2-2-2-2-2-2-2-2-2-2-2-2-2-2-2-2-|

BRIDGE
|--------------------------------------------------|
|--------------------------------------------------|
|--------------------------------------------------|
|-9-9-9-7----9-9-9-7----9-9-9-7----9-9-9-7-x-x-x-x-|
|-9-9-9-7----9-9-9-7----9-9-9-7----9-9-9-7-x-x-x-x-|
|-7-7-7-5----7-7-7-5----7-7-7-5----7-7-7-5-x-x-x-x-|

Mientras el cantante Billie Joe Armstrong
sostiene la voz en "contradictiooooon!" se toca el intro,
luego se toca el pre-verse y se mantiene mientras cantan el bridge pero no se toca el bridge.

FINAL
|-----------------------------------|
|-----------------------------------|
|-----7/9-9-------------x4--------|
|-9-9-7/9-9-7-7-7-9-9-9-----9-9-9-7-|
|-9-9-5/7-7-7-7-7-9-9-9-----9-9-9-7-|
|-7-7-------5-5-5-7-7-7-----7-7-7-5-|

ORDEN:
intro
pre-verse
verso
coro
verso
coro
bridge
intro
bridge (tocando pre-verse)
intro
verso/final

LYRICS
I'm not fucking around 
I think I'm coming out
all the deceivers and cheaters 
I think we got a bleeder right now
want you to slap me around?
want you to knock me out?
well you missed me, kissed me
now you better kick me down

Maybe you're the runner up 
but the first one to lose the race
almost only really counts in 
horseshoes and handgrenades

I'm gonna burn it all down
I'm gonna rip it out
well everything that you employ
was meant for me to destroy to the ground now
so don't you fuck me around
because I'll shot you down
I'm gonna drink, fight and fuck
and I'm pushing my luck all the time now

Maybe you're the runner up 
but the first one to lose the race
almost only really counts in 
horseshoes and handgrenades

Demolition
self-destruction
want to anihilate the
age old contradictiooooooooooon!

Demolition
self-destruction
want to anihilate the
age old contradiction
demolition
self-desctruction
want to anihilate the old age

I'm not fucking around
I think I'm coming out
well I'm a hater, a traidor 
on a pair of chuck taylors right now
I'm not fucking around
G L O R I A
G L O R I A
G L O R I A
G L O R I A

Fuente: Tusacordes