a b c d e f g h i j k l m n o p q r s t u v w x y z 0-9

Horseshoes And Handgrenades

Green Day

			
INTRO/VERSE
|-----------------|
|-----------------|
|-----9-----------|
|-9---9---7---4---|
|-9---7---7---4---|
|-7-------5---2---|

PRE-VERSE
|------------------|
|------------------|
|-4---7---9---12---|
|------------------|
|------------------|
|------------------|

CHORUS
|-----------------|
|-----------------|
|-9-------9-------|
|-9---9---9---2---|
|-7---9---7---4---|
|-----7-------4---|

BRIDGE
|-----------|
|-----------|
|-----------|
|-9-9-9-7---|
|-9-9-9-7---|
|-9-9-9-7---|

ENDING
|--------------------|-----------|
|--------------------|-----------|
|-----9-------9------|-----------|
|-9---9---7---9-x4-|-9-9-9-7---|
|-9---7---7---7------|-9-9-9-7---|
|-7-------5----------|-9-9-9-7---|

Fuente: Tusacordes