a b c d e f g h i j k l m n o p q r s t u v w x y z 0-9

Holliday

Green Day

			
Intro: come in at 0:13 with drumroll
G|---------------|
D|3-3------------| x2
A|----4-4-----6-6|
E|--------4-4----|

Verse:
G|----------------------------------------------------------------|
D|3-3-------------3-3-------------3-3-----------------------------| x2
A|----4-4-----6-6-----4-4-----3-3-----4-4-----6-6-3-3-3-3-3-3-3-3-|
E|--------4-4-------------4-4-------------4-4---------------------|

Chorus:
G|---------------------------------------------------------------|
D|---------------------------------------------------------------| 
A|--------4-4-4-4---------6-6-6-6---------4-4-4-4---------3-3-3-3|
E|1-1-1-1---------4-4-4-4---------1-1-1-1---------4-4-4-4--------|

espera 8 segundos Verse 2:
G|----------------------------------------------------------------|
D|3-3-------------3-3-------------3-3-----------------------------| x2
A|----4-4-----6-6-----4-4-----3-3-----4-4-----6-6-3-3-3-3-3-3-3-3-|
E|--------4-4-------------4-4-------------4-4---------------------|

Chorus:
G|---------------------------------------------------------------|
D|---------------------------------------------------------------| 
A|--------4-4-4-4---------6-6-6-6---------4-4-4-4---------3-3-3-3|
E|1-1-1-1---------4-4-4-4---------1-1-1-1---------4-4-4-4--------|

Wait 2 seconds

Post Chorus:
G|-----------------------------|
D|------------1---------------3| x2
A|--------4-1---3---------6-3--|
E|1-1-4-4---------1-1-4-4------|

Guitar Solo:
G|----------------------------------------------------------------5-5-5-5-5-5-5-5
D|------------------------3-3-1-1-------------------------------------------------
A|5-5-5-5---------3-3-3-3---------4-4-4-4---------3-3-3-3-3-3-3-3-----------------
E|--------5-5-5-5-------------------------4-4-4-4---------------------------------

Bass Solo:
G|-----------------------------|
D|------------1---------------3| x6
A|--------4-1---3---------6-3--|
E|1-1-4-4---------1-1-4-4------|

Chorus:
G|---------------------------------------------------------------|
D|---------------------------------------------------------------| x2
A|--------4-4-4-4---------6-6-6-6---------4-4-4-4---------3-3-3-3|
E|1-1-1-1---------4-4-4-4---------1-1-1-1---------4-4-4-4--------|

Post-Chorus:
G|------------------------5-5-5-5|
D|-------------------------------|
A|3-3-3-3-3-3-3-3-3-3-3-3--------|
E|-------------------------------|

Outro:
G|---------------|
D|3-3------------| x3
A|----4-4-----6-6|
E|--------4-4----|

G|---------------|
D|3-3---------3--|
A|----4-4-6-3----|
E|--------------1|

Fuente: Tusacordes