a b c d e f g h i j k l m n o p q r s t u v w x y z 0-9

Holiday

Green Day

			
Intro 


e|-----------------------------------------------------|
B|---9-----6-----13-----8------------------------------|
G|--10-----6-----13-----8------------------------------|
D|--10-x2--6?x2--13-x2--8-x2---------------------------| X4
A|--8------4-----11-----6------------------------------|
E|-----------------------------------------------------|



Verse1 

e|----------------------------------------------------|
B|----------------------------------------------------|
G|--10-----6----------8-------------------------------|
D|--10-x2--6-x2-6-----8-x2----------------------------| X5
A|---8-----4----6-x2--6-------------------------------|
E|--------------4-------------------------------------|



Then play the pre-chorus
e|---------------------------------------------|
B|---------------------------------------------|
G|---5-5-5-5-5-5-5-5-5-------------------------|
D|---5-5-5-5-5-5-5-5-5-------------------------|
A|---3-3-3-3-3-3-3-3-3-------------------------|
E|---------------------------------------------|


Verse1 

e|----------------------------------------------------|
B|----------------------------------------------------|
G|--10-----6----------8-------------------------------|
D|--10-x2--6-x2-6-----8-x2----------------------------| X3
A|---8-----4----6-x2--6-------------------------------|
E|--------------4-------------------------------------|


e|---------------------------------------------|
B|---------------------------------------------|
G|---5-5-5-5-5-5-5-5-5-------------------------|
D|---5-5-5-5-5-5-5-5-5-------------------------|
A|---3-3-3-3-3-3-3-3-3-------------------------|
E|---------------------------------------------|


Chorus

e|----------------------------------------------------|
B|----------------------------------------------------|
G|-------6-----------8------------6-------------5-----|
D|-3-----6-x4--6-----8-x4---3-----6-x4---6------5-x5--|
A|-3-x4--4-----6-x4--6------3-x4--4------6?x4---3-----|
E|-1-----------4------------1------------4------------|



e|-----------------------------------------------------|
B|---9-----6-----13-----8------------------------------|
G|--10-----6-----13-----8------------------------------|
D|--10-x2--6?x2--13-x2--8-x2---------------------------| X2
A|--8------4-----11-----6------------------------------|
E|-----------------------------------------------------|

e|----------------------------------------------------|
B|----------------------------------------------------|
G|--10-----6----------8-------------------------------|
D|--10-x2--6-x2-6-----8-x2----------------------------| X3
A|---8-----4----6-x2--6-------------------------------|
E|--------------4-------------------------------------|

e|---------------------------------------------|
B|---------------------------------------------|
G|---5-5-5-5-5-5-5-5-5-------------------------|
D|---5-5-5-5-5-5-5-5-5-------------------------|
A|---3-3-3-3-3-3-3-3-3-------------------------|
E|---------------------------------------------|

e|----------------------------------------------------|
B|----------------------------------------------------|
G|--10-----6----------8-------------------------------|
D|--10-x2--6-x2-6-----8-x2----------------------------| X3
A|---8-----4----6-x2--6-------------------------------|
E|--------------4-------------------------------------|

e|---------------------------------------------|
B|---------------------------------------------|
G|---5-5-5-5-5-5-5-5-5-------------------------|
D|---5-5-5-5-5-5-5-5-5-------------------------|
A|---3-3-3-3-3-3-3-3-3-------------------------|
E|---------------------------------------------|

e|----------------------------------------------------|
B|----------------------------------------------------|
G|-------6-----------8------------6-------------5-----|
D|-3-----6-x4--6-----8-x4---3-----6-x4---6------5-x5--|
A|-3-x4--4-----6-x4--6------3-x4--4------6?x4---3-----|
E|-1-----------4------------1------------4------------|



Bridge 

e|----------------------------------------------|
B|----------------------------------------------|
G|---------6---3--8--------------8--5--10-------|
D|-33--66--6---3--8--8---33--66--8--5--10-------| X2
A|-33--66--4---1--6--8---33--66--6--3--8--------|
E|-11--44------------6---11--44-----------------|

Solo

e|----------------------------------8---8-------------------|
B|-6-6-6-8-9------------8-8-8----6----6----6-6-6-8-9--------|
G|-----------8-6-5-5-5-------5----------------------8-6-5-5-|
D|----------------------------------------------------------|
A|----------------------------------------------------------|
E|----------------------------------------------------------|

Solo Continued

e|---------8-8-8-8--12-12-12-12-12-12-12-12? 13~-----------|
B|-8-8-8-8-8-8-8-8---8--8--8--8--8--8--8--8----------------|
G|---------------------------------------------------------|
D|---------------------------------------------------------|
A|---------------------------------------------------------|
E|---------------------------------------------------------|

Only Bass in the Next Verse until towards the end you play
e|---------------------------------------------------------------------|
B|---------------------------------------------------------------------|
G|---8--5--10---5-5-5-5-5-5-5-5-5-5-5-5-5-5-5-5------------------------|
D|---8--5--10---5-5-5-5-5-5-5-5-5-5-5-5-5-5-5-5------------------------|
A|---6--3--8----3-3-3-3-3-3-3-3-3-3-3-3-3-3-3-3------------------------|
E|---------------------------------------------------------------------|


e|----------------------------------------------------|
B|----------------------------------------------------|
G|-------6-----------8------------6-------------5-----| 
D|-3-----6-x4--6-----8-x4---3-----6-x4---6------5-x5--|
A|-3-x4--4-----6-x4--6------3-x4--4------6?x4---3-----|
E|-1-----------4------------1------------4------------|


e|----------------------------------------------------|
B|----------------------------------------------------|
G|-------6-----------8------------6-------------5-----| 
D|-3-----6-x4--6-----8-x4---3-----6-x4---6------5-x17-|
A|-3-x4--4-----6-x4--6------3-x4--4------6?x4---3-----|
E|-1-----------4------------1------------4------------|

e|----------------------------------------------------|
B|----------------------------------------------------|
G|--10-----6----------8-------------------------------|
D|--10-x2--6-x2-6-----8-x2----------------------------| X3
A|---8-----4----6-x2--6-------------------------------|
E|--------------4-------------------------------------|

Outro
e|-------------------------------------------------------|
B|-------------------------------------------------------|
G|--8---5---10~--5---------------------------------------|
D|--8---5---10~--5---------------------------------------|
A|--6---3---8-~--3---------------------------------------|
E|-------------------------------------------------------|

Fuente: Tusacordes