a b c d e f g h i j k l m n o p q r s t u v w x y z 0-9

Holiday

Green Day

			
ia ok !! es el intro no+ !! xD  aki  c los dejo  !! go  

intro riff 4x

E |--------------12-------|
B |-9-9--6-6--13-x--8-8---|
G |-x-x--x-x--x--x--x-x---|
D |-x-x--x-x--x--x--x-x---|
A |-8-8--4-4--11-11-6-6---|
E |-----------------------|

E |------------------------------------|
B |------------------------------------|
G |-10--6-------8------10--6-------8---|
D |-10--6---6---8------10--6---6---8---|
A |-8---4---6---6------8---4---6---6---|
E |---------4------------------4-------|

 verso F5  C#5 G#5 D#5    F5  C#5 G#5 C5    F5  C#5 G#5 D#5  C5
E |-----------------------------------------------------------|
B |-----------------------------------------------------------|
G |-10--6-------8------10--6-------5------10--6-------8---5---|
D |-10--6---6---8------10--6---6---5------10--6---6---8---5---|
A |-8---4---6---6------8---4---6---3------8---4---6---6---3---|
E |---------4------------------4------------------4-----------|

chorus
     F5     C#5    G#5    D#5    F5     C#5    G#5    C5
E |------------------------------------------------------|
B |------------------------------------------------------|
G |--------6-------------8-------------6-------------5---|
D |-3------6------6------8------3------6------6------5---|
A |-3------4------6------6------3------4------6------3---|
E |-1-------------4-------------1-------------4----------|

bridge
     F5  G#5 C# A# D# C    F5   G# D# C  F    x2
E |------------------------------------------|
B |------------------------------------------|
G |---------6-----8--5------------8-----10---|
D |-3---6---6--8--8--5-----3---6--8--10-10-10|
A |-3---6---4--8--6--3-----3---6--6--10-8--10|
E |-1---4------6-----------1---4-----8-----8-|

solo
guitar 1
     C#5       G#5          C5       F5      D#5
E |----------------------------------------------|
B |----------------------------------------------|
G |-6----------------------5--------10------8----|
D |-6---------6------------5--------10------8----|
A |-4---------6------------3--------8-------6----|
E |-----------4----------------------------------|

guitar 2
E |------------------------8----8---------|
B |-6-6-8-9--------8-5---6---6-6--6-------|
G |---------8-6-5-6---5-------------------|
D |---------------------------------------|
A |---------------------------------------|
E |---------------------------------------|

guitar 1
     C#5       G#5          C5 strum through
E |--------------------------------------------------------------------|
B |--------------------------------------------------------------------|
G |-6----------------------5-------------------------------------------|
D |-6---------6------------5-------------------------------------------|
A |-4---------6------------3-------------------------------------------|
E |-----------4--------------------------------------------------------|

guitar2                                                        aki solo siguiendo el compaz !! :D 
E |--------------------------8-8-8-8-12-12-12-12-12-12-12-12-12-12-13~-|
B |---6-6-8-9--------8-8-8-8-------------------------------------------|
G |-----------8-6-5-6--------------------------------------------------|
D |--------------------------------------------------------------------|
A |--------------------------------------------------------------------|
E |--------------------------------------------------------------------|

el medio
                                                            x6
G |----------------------------------------------------------|
D |----------------------------------------------------------|
A |----------------4-----6----------------------6-----8------|
E |--1-1-1--4-4-4-----6-----81---1-1-1--4-4-4-----8-----1--|

                                                 D# C5 F5
E |----------------------------------------------------------|
B |---this-is-played-on--------------------------------------|
G |--------the-sixth-repeat:--------------------8-----10-----|
D |---------------------------------------------8--10-10-----|
A |---------------------------------------------6--10-8------|
E |------------------------------------------------8---------|

      C5
E |------|
B |------|
G |--5---|
D |--5---|
A |--3---|
E |------|

este es el final !! xD
     F5  G#5 D#5 C5  F5   F5
E |-------------------------|
B |-------------------------|
G |-10--6---8-------10------|
D |-10--6---8---10--10---3--|
A |-8---4---6---10--8----3--|
E |-------------8--------1--|

Fuente: Tusacordes