a b c d e f g h i j k l m n o p q r s t u v w x y z 0-9

Holiday

Green Day

			
Intro X2
e|------------------------------------------------|
B|------------------------------------------------|
G|-10-10-6--6--13-13-8-8-8---10-10-6--6--13-13-8--|
D|-10-10-6--6--13-13-8-8-8---10-10-6--6--13-13-8--| 
A|-8--8--4--4--11-11-6-6-6---8--8--4--4--11-11-6--|
E|------------------------------------------------| 

Main Riff
e|------------------------------------------------|
B|------------------------------------------------|
G|-10-10-6--6--------8-8-8---10-10-6--6--------8--|
D|-10-10-6--6--6--6--8-8-8---10-10-6--6--6--6--8--|
A|-8--8--4--4--6--6--6-6-6---8--8--4--4--6--6--6--|
E|-------------4--4----------------------4--4-----|

Verso X2
e|------------------------------------------------|
B|------------------------------------------------|
G|-10-10-6--6--------8-8-8---10-10-6--6--------5--|
D|-10-10-6--6--6--6--8-8-8---10-10-6--6?-6--6--5--|
A|-8--8--4--4--6--6--6-6-6---8--8--4--4--6--6--3--|
E|-------------4--4----------------------4--4-----| 

e|------------------------------------------------|
B|------------------------------------------------|
G|-10-10-6--6--------8-?5-5-5-5-5-5-5-5-5---------|
D|-10-10-6--6--6--6--8--5-5-5-5-5-5-5-5-5---------|
A|-8--8--4--4--6--6--6--3-3-3-3-3-3-3-3-3---------|
E|-------------4--4-------------------------------|

Coro
e|--------------------------------------------------------------------------|
B|--------------------------------------------------------------------------|
G|----------6-6-6-6-----------8-8-8-8------------6-6-6-6-----------5-5-5-5--|
D|-3-3-3-3--6-6-6-6--6-6-6-6--8-8-8-8---3-3-3-3--6-6-6-6--6-6-6-6--5-5-5-5--|
A|-3-3-3-3--4-4-4-4--6-6-6-6--6-6-6-6---3-3-3-3--4-4-4-4--6-6-6-6--3-3-3-3--|
E|-1-1-1-1-----------4-4-4-4------------1-1-1-1-----------4-4-4-4-----------|

Intro 
e|------------------------------------------------|
B|------------------------------------------------|
G|-10-10-6--6--13-13-8-8-8---10-10-6--6--13-13-8--|
D|-10-10-6--6--13-13-8-8-8---10-10-6--6--13-13-8--| 
A|-8--8--4--4--11-11-6-6-6---8--8--4--4--11-11-6--|
E|------------------------------------------------| 

Verso X2
e|------------------------------------------------|
B|------------------------------------------------|
G|-10-10-6--6--------8-8-8---10-10-6--6--------5--|
D|-10-10-6--6--6--6--8-8-8---10-10-6--6?-6--8--5--|
A|-8--8--4--4--6--6--6-6-6---8--8--4--4--6--6--3--|
E|-------------4--4----------------------4--4-----| 

e|------------------------------------------------|
B|------------------------------------------------|
G|-10-10-6--6--------8-?5-5-5-5-5-5-5-5-5---------|
D|-10-10-6--6--6--6--8--5-5-5-5-5-5-5-5-5---------|
A|-8--8--4--4--6--6--6--3-3-3-3-3-3-3-3-3---------|
E|-------------4--4-------------------------------|


Coro
e|--------------------------------------------------------------------------|
B|--------------------------------------------------------------------------|
G|----------6-6-6-6-----------8-8-8-8------------6-6-6-6-----------5-5-5-5--|
D|-3-3-3-3--6-6-6-6--6-6-6-6--8-8-8-8---3-3-3-3--6-6-6-6--6-6-6-6--5-5-5-5--|
A|-3-3-3-3--4-4-4-4--6-6-6-6--6-6-6-6---3-3-3-3--4-4-4-4--6-6-6-6--3-3-3-3--|
E|-1-1-1-1-----------4-4-4-4------------1-1-1-1-----------4-4-4-4-----------|

Bridge X2
e|------------------------------------------------|
B|------------------------------------------------|
G|-------------6-----8------------------8-----10--|
D|-3--3--6--6--6--8--8--10--3--3--6--6--8--10-10--|
A|-3--3--6--6--4--8--6--10--3--3--6--6--6--10-8---|
E|-1--1--4--4-----6-----8---1--1--4--4-----8------|

Solo
e|-------------------------------8---8-------------------------8-8-8-111111141414-15-|
B|-6-6-6-8-9-------------8-8-8-----6---6-6-6-6-8-9-----------------------------------|
G|-----------8-6-5-5-5-5-------5-------------------8-6-5-5-5-5-----------------------|
D|-----------------------------------------------------------------------------------|
A|-----------------------------------------------------------------------------------|
E|-----------------------------------------------------------------------------------|
  								       
Coro
e|------------------------------------------------------------------------------------|
B|------------------------------------------------------------------------------------|
G|----------6-6-6-6-----------8-8-8-8------------6-6-6-6-----------5-5-5-5-5-5-5-5-5--|
D|-3-3-3-3--6-6-6-6--6-6-6-6--8-8-8-8---3-3-3-3--6-6-6-6--6-6-6-6--5-5-5-5-5-5-5-5-5--|
A|-3-3-3-3--4-4-4-4--6-6-6-6--6-6-6-6---3-3-3-3--4-4-4-4--6-6-6-6--3-3-3-3-3-3-3-3-3--|
E|-1-1-1-1-----------4-4-4-4------------1-1-1-1-----------4-4-4-4---------------------|

Main Riff
e|--------------------------------------------------|
B|--------------------------------------------------|
G|-10-10-6--6--------8-8-8---10-10-6--6--------8----|
D|-10-10-6--6--6--6--8-8-8---10-10-6--6??6--8--8----|
A|-8--8--4--4--6--6--6-6-6---8--8--4--4--6--6--6----|
E|-------------4--4----------------------4--4-------|

End:
e|--------------------------------------------------|
B|--------------------------------------------------|
G|-10-10-6--6--------8-8-8---10-10-6--6--8-----10---|
D|-10-10-6--6--6--6--8-8-8---10-10-6--6?-8--10-10-3-|
A|-8--8--4--4--6--6--6-6-6---8--8--4--4--6--10-8--3-|
E|-------------4--4-------------------------8-----1-|

Fuente: tusacordes.com