a b c d e f g h i j k l m n o p q r s t u v w x y z 0-9

Holiday

Green Day

			
intro de la rola holiday de greenday esta va hacer mi primera cancion que pongo aver que les parese


Intro Riff:          
e|--------------------|
B|-10---6----13---8---|
G|-10---6----13---8---|
D|-x----x----x----x---| 
A|-8----4----11---6---|
E|--------------------|

Main Riff:
   F5  C#5 G#5 D#5 
e|-----------------|
B|-----------------|
G|-10--6-------8---|
D|-10--6---6---8---|
A|-8---4---6---6---|
E|---------4-------|

Verso:
   F5  C#5 G#5 D#5    F5  C#5 G#5 C5    F5  C#5 G#5 D#5  C5
e|-----------------------------------------------------------|
B|-----------------------------------------------------------|
G|-10--6-------8------10--6-------5------10--6-------8---5---|
D|-10--6---6---8------10--6---6---5------10--6---6---8---5---|
A|-8---4---6---6------8---4---6---3------8---4---6---6---3---|
E|---------4------------------4------------------4-----------|

coro:
   F5     C#5    G#5    D#5    F5     C#5    G#5    C5  
e|------------------------------------------------------|
B|------------------------------------------------------|
G|--------6-------------8-------------6-------------5---|
D|-3------6------6------8------3------6------6------5---|
A|-3------4------6------6------3------4------6------3---|
E|-1-------------4-------------1-------------4----------|

Bridge:
   F5  G#5 C# A# D# F    F5   G# D# C  F    x2
e|------------------------------------------|
B|------------------------------------------|
G|---------6-----8---------------8-----10---|
D|-3---6---6--8--8--10----3---6--8--10-10---|
A|-3---6---4--8--6--10----3---6--6--10-8----|
E|-1---4------6-----8-----1---4-----8-------|

Solo:
Guitar 1:
   C#5       G#5	  C5	   F5	   D#5	   
e|------------------------------------------------|
B|------------------------------------------------|
G|-6----------------------5--------10------8------|
D|-6---------6------------5--------10------8------|
A|-4---------6------------3--------8-------6------|
E|-----------4------------------------------------|

Guitar 2:   
e|------------------------------------8------8----|
B|-----------8-9----------8----------------8---8--|
G|-10-10-10------8-6-5--5---9-5--5/10---10--------|
D|------------------------------------------------|
A|------------------------------------------------|
E|------------------------------------------------|

Guitar 1:
   C#5       G#5	  C5 strum through	   				   
e|--------------------------------------------------------------------------------|
B|--------------------------------------------------------------------------------|
G|-6----------------------5-------------------------------------------------------|
D|-6---------6------------5-------------------------------------------------------|
A|-4---------6------------3-------------------------------------------------------|
E|-----------4--------------------------------------------------------------------|

Guitar 2:  									   let ring
e|--------------------------------------------------------------------------------------|
B|-----------8-9-------------------------13-13-13-13-13-17-17-17-17-17-17-17-17-17/18---|
G|-10-10-10------8-6-5-55/12-12-12-12-12------------------------------------------------|
D|--------------------------------------------------------------------------------------|
A|--------------------------------------------------------------------------------------|
E|--------------------------------------------------------------------------------------|
     


fin:
   F5  G#5 D#5 C5  F5	F5  
e|-------------------------|
B|-------------------------|
G|-10--6---8-------10------|
D|-10--6---8---10--10---3--|
A|-8---4---6---10--8----3--|  
E|-------------8--------1--|


Order:

Intro Riff x4
Main Riff x2
Verso x2 
coro
Intro Riff x2
Verse x2
coro
Bridge
Solo
Interlude
Chorus x2 Hold last C5
Main Riff x3
End

Fuente: tusacordes.com