a b c d e f g h i j k l m n o p q r s t u v w x y z 0-9

Holiday

Green Day

F
C#m
D#m
G#m
Cm
Fm
			
 Intro 
F   C#m  D#m  D#m   [x4]
F   C#m  G#m  D#m  [x2]
Verso 1
F       C#m           G#m      D#m
Hear the sound of the falling rain
F     C#m       G#m         Cm      F
Coming down like an Armageddon flame Hey!
   C#m
The shame
    G#m       D#m        Cm
The ones who died without a name

Verso 2

F       C#m         G#m      D#m
Hear the dogs howling out of key
F     C#m       G#m         Cm      F
To a hymn called "Faith and Misery" Hey!
C#m                   G#m        D#m        Cm
And bleed, the company lost the war today

Coro

Fm      C#m                G#m            D#m
I beg to dream and differ from the hollow lies
Fm          C#m            G#m         Cm    [para]
This is the dawning of the rest of our lives

On holiday 

F   C#m  D#m  D#m   [x2]
Verso 3
F       C#m         G#m      D#m
Hear the drum pounding out of time
F     C#m       G#m         Cm      F
Another protestor has crossed the line Hey!
   C#m                   G#m       D#m        Cm
To find, the money's on the other side

Verso 4

F       C#m         G#m      D#m
Can I get another Amen? Amen!
F        C#m         G#m         Cm         F
There's a flag wrapped around the score of men Hey!
C#m      G#m       D#m        Cm 
A gag, A plastic bag on a monument

Coro

Fm      C#m                G#m            D#m
I beg to dream and differ from the hollow lies
Fm          C#m            G#m         Cm    [para]
This is the dawning of the rest of our lives

On holiday 

Antes del solo 

Fm  G#m  C#m A#m  D#m F  Fm  G#m  D#m  Csus  F [x2]Escuchen 
la pieza para que sepan como
tocar esta parte.. es super facil

Solo

e|---------------------------------------------8-----8-------------|
B|---6-6-6--8-9-----------------8-5---------6-----6----------------|
G|---------------8-6--5-5-5-5--------5-5-5-------------------------|
D|-----------------------------------------------------------------|
A|-----------------------------------------------------------------|
E|-----------------------------------------------------------------|


e|-----------------------------------------------------------------|
B|-6-6-6--8-9-------------8-8-8-8--13-13-13-13---------------------|
G|------------8-6--5-5-5-5-----------------------------------------|
D|-----------------------------------------------------------------|
A|-----------------------------------------------------------------|
E|-----------------------------------------------------------------|

e|--------------------------------------------------------|
B|---17-17-17-17-17-17-17-17-18~--------------------------|
G|--------------------------------------------------------|
D|--------------------------------------------------------|
A|--------------------------------------------------------|
E|--------------------------------------------------------|

Este solo esta perfecto
Verso 5
"The representative from California has the floor"

Zieg Heil to the president gasman
Bombs away is your punishment
Pulverize the Eiffel towers
Who criticize your government
Bang bang goes the broken glass and
Kill all the fags that don't agree
Trials by fire, setting fire
                   D#m     Cm   F
Is not a way that's meant for me
Cm                     Cm
Just cause, just cause, because we're outlaws yeah!


Coro

Fm      C#m                G#m            D#m
I beg to dream and differ from the hollow lies

Fm          C#m            G#m         Cm    
This is the dawning of the rest of our lives
Fm      C#m                G#m            D#m
I beg to dream and differ from the hollow lies
Fm          C#m            G#m         Cm    [manten]
This is the dawning of the rest of our lives

This is our lives on holiday

F   C#m  G#m  D#m  [x3]
F  C#m  D#m  Csus  F  Fm


Acordes a utilizar

   F    C#m    D#m    D#m    G#m     Cm      Fm    A#m   Csus
e|-----------------------------------------------------------|
B|-----------------------------------------------------------|
G|-10----6-------------8--------------5----------------------|
D|-10----6-----13------8------6-------5------3------8-----10-|
A|-8-----4-----13------6------6-------3------3------8-----10-|
E|-------------11-------------4--------------1------6-----8--|


Cualquier duda escribanme a mi correo [javier_3639@hotmail.com]
Interesados en clases de guitarra ppreguntar por mi correo
 o a mi celular [0416-3088154.. La mensualidad es de 100 BsF
y las clases son en Estudio Play.. [solo para residentes en
 venezuela/distrito federal]
 

Fuente: Lacuerda