a b c d e f g h i j k l m n o p q r s t u v w x y z 0-9

Holiday

Green Day

F
Fm
C#
C
Bb
			
 Holiday [ versión 2]


Tom: F
Intro:
    Fm         C#         Ab         Eb
e|-------------------------------------------
B|--9---9---x-------------13--13--x----------
G|--10--10--x--10--10--x--13--13--x--12--12--  [repeat 4x]
D|-------------11--11--x-------------13--13--
A|-------------------------------------------
E|-------------------------------------------

F   C#   Ab   Eb  [repeat 2x]
Say hey, cha...

Verse 1:
F        C#           Ab      Eb
Hear the sound of the falling rain
F        C#         Ab   C     F
Coming down like an Armageddon flame
F        C#           Ab      Eb      C
The shame the ones who died without a name
F        C#           Ab      Eb
Hear the dogs howling out of key
F        C#         Ab   C     F
To a hymn called "Faith and Misery"
F        C#           Ab      Eb      C
I plead, the company that lost the war today


Chorus:
F[2]       C#               Ab              Eb  
I beg to dream and differ from the hollow lies
F[2]       C#               Ab              C
This is the dawning of the rest of our lives
[no chords]
On holiday.

   Fm         C#         Ab         Eb
e-------------------------------------------
B--9---9---x-------------13--13--x----------
G--10--10--x--10--10--x--13--13--x--12--12--  [repeat 2x]
D-------------11--11--x-------------13--13--
A-------------------------------------------
E-------------------------------------------

Verse 2:
F        C#           Ab      Eb
Hear the drum pounding out of time
F        C#          Ab    C      F
Another protester has crossed the line
F     C#     Ab     Eb      C
To find the money's on the other side
F      C#      Ab      Eb
Can I get another amen? Amen!
F         C#              Ab          C   F
There's a flag wrapped around a score of men
F   C#     Ab      Eb      C
A gag, a plastic bag on a monument

Chorus:
F[2]       C#               Ab              Eb  
I beg to dream and differ from the hollow lies
F[2]       C#               Ab              C
This is the dawning of the rest of our lives
[no chords]
On holiday.

Bridge:

F[2]   Ab  C#  Bb  Eb  C
F[2]   Ab  Eb  C   F
F[2]   Ab  C#  Bb  Eb  C
F[2]   Ab  Eb  C   F

Solo:
E|---------------------------------------------8-----8--
B|--6--6--6--8/9----------------8--5-----5--6-----6-----
G|----------------8--65--5--5--------5-----------------
D|------------------------------------------------------
A|------------------------------------------------------
E|------------------------------------------------------

E|---------------------------------8--8--12--12~~--13~~--
B|--6--6--6--8/9----------------8~-----------------------
G|----------------8--65--5--5---------------------------
D|-------------------------------------------------------
A|-------------------------------------------------------
E|-------------------------------------------------------

**The representative from California has the floor!** 

Verse 3:
[no chords for awhile]
Sieg Heil to the President-Gas-Man
"Bombs away!" is your punishment!
Pulverize the Eiffel Towers 
Who criticize your government
Bang! Bang! goes a broken classic
Kill all the fags that don't agree
Triumph by fire
Setting fires is not a way that's meant for me
Eb  C  Fm
Bridge 2:
Bb [slide up to] C
Just cause
Bb [slide up to] C
Just cause
Because we're on holiday

Chorus:

F[2]       C#               Ab              Eb  
I beg to dream and differ from the hollow lies
F[2]       C#               Ab              C
This is the dawning of the rest of our lives
F[2]       C#               Ab              Eb  
I beg to dream and differ from the hollow lies
F[2]       C#               Ab              C
This is the dawning of the rest of our lives

This is our lives on holiday....

Outro:
F   C#   Ab   Eb  [repeat 3x]
F   C#   Eb   C   Fm
F[2]



SUERTEEEEE
ESPERO
LES SIRVA

GRAXXX GONZAA ;] 

Fuente: Lacuerda