a b c d e f g h i j k l m n o p q r s t u v w x y z 0-9

Holiday

Green Day

C#
D#
F
G#
C
			
------------------------------------------------------------
  Holiday - Green Day
------------------------------------------------------------


Intro Riff:          
e|--------------------|
B|-9----6----13---8---|
G|-10---6----13---8---|
D|-x----x----x----x---| 
A|-8----4----11---6---|
E|--------------------|

Main Riff:
   F5  C#5 G#5 D#5 
e|-----------------|
B|-----------------|
G|-10--6-------8---|
D|-10--6---6---8---|
A|-8---4---6---6---|
E|---------4-------|

Verse:
   F5  C#5 G#5 D#5    F5  C#5 G#5 C5    F5  C#5 G#5 D#5  C5
e|-----------------------------------------------------------|
B|-----------------------------------------------------------|
G|-10--6-------8------10--6-------5------10--6-------8---5---|
D|-10--6---6---8------10--6---6---5------10--6---6---8---5---|
A|-8---4---6---6------8---4---6---3------8---4---6---6---3---|
E|---------4------------------4------------------4-----------|

Chorus:
   F5     C#5    G#5    D#5    F5     C#5    G#5    C5  
e|------------------------------------------------------|
B|------------------------------------------------------|
G|--------6-------------8-------------6-------------5---|
D|-3------6------6------8------3------6------6------5---|
A|-3------4------6------6------3------4------6------3---|
E|-1-------------4-------------1-------------4----------|

Bridge:
   F5  G#5 C# A# D# F    F5   G# D# C  F    x2
e|------------------------------------------|
B|------------------------------------------|
G|---------6-----8---------------8-----10---|
D|-3---6---6--8--8--10----3---6--8--10-10---|
A|-3---6---4--8--6--10----3---6--6--10-8----|
E|-1---4------6-----8-----1---4-----8-------|

Solo:
Guitar 1:
   C#5       G#5          C5       F5      D#5     
e|------------------------------------------------|
B|------------------------------------------------|
G|-6----------------------5--------10------8------|
D|-6---------6------------5--------10------8------|
A|-4---------6------------3--------8-------6------|
E|-----------4------------------------------------|

Guitar 2:   
e|------------------------------------8------8----|
B|-----------8-9----------8----------------8---8--|
G|-10-10-10------8-6-5--5---9-5--5/10---10--------|
D|------------------------------------------------|
A|------------------------------------------------|
E|------------------------------------------------|

Guitar 1:
   C#5       G#5          C5 [strum through]                                       
e|--------------------------------------------------------------------|
B|--------------------------------------------------------------------|
G|-6----------------------5-------------------------------------------|
D|-6---------6------------5-------------------------------------------|
A|-4---------6------------3-------------------------------------------|
E|-----------4--------------------------------------------------------|

Guitar 2:                                                        [let ring]
e|------------------------------------------------12-12-12-12-12/13---|
B|-----------8-9-------------------------13-13-13---------------------|
G|-10-10-10------8-6-5-55/12-12-12-12-12------------------------------|
D|--------------------------------------------------------------------|
A|--------------------------------------------------------------------|
E|--------------------------------------------------------------------|
     
Interlude:                                                  
                                                            x6 
G|----------------------------------------------------------|
D|----------------------------------------------------------|
A|----------------4-----6----------------------6-----8------|
E|--1-1-1--4-4-4-----6-----8\1---1-1-1--4-4-4-----8-----\1--|

                                               D# C5 F5    
e|----------------------------------------------------------|
B|---This-is-played-on--------------------------------------|
G|--------the-sixth-repeat:--------------------8-----10-----|
D|---------------------------------------------8--10-10-----|
A|---------------------------------------------6--10-8------|
E|------------------------------------------------8---------|

    C5         
e|------|
B|------|
G|--5---|
D|--5---|
A|--3---|
E|------|

End:
   F5  G#5 D#5 C5  F5   F5  
e|-------------------------|
B|-------------------------|
G|-10--6---8-------10------|
D|-10--6---8---10--10---3--|
A|-8---4---6---10--8----3--|  
E|-------------8--------1--|


Order:

Intro Riff x4
Main Riff x2
Verse x2 
Chorus
Intro Riff x2
Verse x2
Chorus
Bridge
Solo
Interlude
Chorus x2 [Hold last C5]
Main Riff x3
End


Lyrics:

Say! Hey!

Hear the sound of the falling rain
Coming down like an Armageddon flame [Hey!]             [Verse 1]
The shame, the ones who die without a name

Hear the dogs howling out of key
To a hymn called "Faith and Misery" [Hey!]                [Verse 2]
And bleed, the company lost the war today

I beg to dream and differ from the hollow lies
This is the dawning of the rest of our lives            [Chorus]
On holiday

There's a drum pounding out of time
Another protestor has crossed the line [Hey!]           [Verse 3]
To find, the money's on the other side

Can I get another Amen?  [Amen!]
There's a flag wrapped around the score of men [Hey!]   [Verse 4]
A gag, A plastic bag on a monument

[Chorus]
[Bridge]

The representative from California has the floor:
"Zieg Heil!" to the president gasman
"Bombs away!" is your punishment
Pulverize the Eiffel Towers
Who criticize your government                               [Interlude]
"Bang Bang!" goes the broken glass man 
Kill all the fags that don't agree
Triumph by fire setting fire
Is not a way that's meant for me 
Just cause... just cause - because we're outlaws yeah!

I beg to dream and differ from the hollow lies
This is the dawning of the rest of our lives            
I beg to dream and differ from the hollow lies
This is the dawning of the rest of our lives
This is our lives on holiday
 

Fuente: Lacuerda