a b c d e f g h i j k l m n o p q r s t u v w x y z 0-9

Hitchin A Ride

Green Day

			
La cansion es la buena la saque de un libro que compre original de green day haci que si llega a ver algun problema por favor pongalo



intro: violin pasada a la guitarra
e ------------------------------------------------- ------
b ------------------------------------------------- ------
------------------------ ------------------------ 8 g ------
d 8h9 ------------ ---- 11 ------- 11 ---- 9 ---- 8 9 ---------- --
un 9h10 -------------------------------------- 10 ---- ----- --
e ------------------------------------------------- ------

intro: guitarra
e ------------------------------------------------- -----------------------
b ------------------------------------------------- -----------------------
g ------------------------------------------------- -----------------------
d ------------------------------------------------- -----------------------
a-99-77-66-555/-99-77-66-555/------------------------------- -------------
e-77-55-44-333/-77-55-44-333/------------------------------- -------------
   .. .. .. ... .. .. .. ...

versículo 1 y 2:
e ------------------------------------------------- -------------------------
b ------------------------------------------------- -------------------------
g ------------------------------------------------- -------------------------
d ------------------------------------------------- -------------------------
a-99-77-66-555/--99-77-66-555/-99-77-66-555/-99-77-66-555/-99-77-66-555/---
e-77-55-44-333/--77-55-44-333/-77-55-44-333/-77-55-44-333/-77-55-44-333/---
   .. .. .. ... .. .. .. ... .. .. .. ... .. .. .. ... .. .. .. ...

e ------------------------------------------------- -------
b ------------------------------------------------- -------
g ------------------------------------------------- -------
d ------------------------------------------------- -------
a-99-77-66-555/-99-77-66-555/-99-77----------------------
e-77-55-44-333/-77-55-44-333/-77-55----------------------
   .. .. .. ... .. .. .. ... .. ..

pre-verso:
e ------------------------------------------------- -------------------------
b ------------------------------------------------- -------------------------
g ------------------------------------------------- -------------------------
d ------------------------------------------------- -------------------------
a-666666-777777-99-77-66-555/-99-77-66-555/-99-77-66-555/-99-77-66---------
e-444444-555555-77-55-44-333/-77-55-44-333/-77-55-44-333/-77-55-44---------

verso 2:

pre-coro:
e ------------------------------------------------- -----------------------------
b ------------------------------------------------- -----------------------------
g ------------------------------------------------- -----------------------------
d ------------------------------------------------- -----------------------------
a-666666-777777-99-77-66-555/-99-77-66-555/-99-77-66-555/-999-7777-6666-5555---
e-444444-555555-77-55-44-333/-77-55-44-333/-77-55-44-333/-777-5555-4444-3333---

coro:
e ------------------------------------------------- -----------------------------
b ------------------------------------------------- -----------------------------
g ------------------------------------------------- -----------------------------
d ------------------------------------------------- -----------------------------
uno-222222-444444-999-777-666-5555-222222-444 --------------------------------- ---
e-000000-222222-777-555-444-3333-000000-222 --------------------------------- ---

el versículo 3:
e ------------------------------------------------- ------------------------
b ------------------------------------------------- ------------------------
g ------------------------------------------------- ------------------------
d ------------------------------------------------- ------------------------
a-99-77-66-555/-99-77-66-555/-99-77-66-555/-99-77-66-555/-99-77-66-555----
e-77-55-44-333/-77-55-44-333/-77-55-44-333/-77-55-44-333/-77-55-44-333----

en solitario:
e ------------------------------------------------- -----------------------------

b-12-12-12-12-12-12-12-12-12-12-12-12/-15-15-15-15-15-15-15-15-15-15-15-15  ----
gx - x - x - x - x - x - x - x - x - x - x - x ---- x - x - x - x -- x - x - x - x - x - x - x - x -----
d-9--9--9--9--9--9--9--9--9--9--9--9-/-12-12-12-12-12-12 -12-12-12-12-12-12  ----
un ------------------------------------------------- -----------------------------
e ------------------------------------------------- -----------------------------

e ------------------------------------------------- -----------------------------
b-12-12-12-12-12-12-12-12-12-12-12-12-8-8-8-8-8-8-7-7-7-7-7-7 - -----------------
gx - x - x - x - x - x - x - x - x - x - x - x - ------------- xxxxxxxxxxxx -----
d-9 - 9 - 9 - 9 - 9 - 9 - 9 - 9 - 9 - 9 - 9 - 9 - 5-5-5-5-5-5 - 4-4-4-4-4-4 ------------------
un ------------------------------------------------- -----------------------------
e ------------------------------------------------- -----------------------------

e ------------------------------------------------- -----------------------------
b-12-12-12-12-12-12-12-12-12-12-12-12/-15-15-15-15-15-15-15-15-15-15-15-15 -----
gx - x - x - x - x - x - x - x - x - x - x - x ---- x - x - x - x -- x - x - x - x - x - x - x - x -----
d-9--9--9--9--9--9--9--9--9--9--9--9-/-12-12-12-12-12-12 -12-12-12-12-12-12 -----
un ------------------------------------------------- -----------------------------
e ------------------------------------------------- -----------------------------

                                                   ~ ~ ~ celebrar doblar ~~~~~~
e ------------------------------------------------- -----------------------------
b-17b-17b-17b-17b-17b-17b-17b-17b-17b-17b-17b-17b-17-17-17-17-17-17 ------------
g - x --- x --- x --- x --- x --- x --- x --- x --- x --- x --- x --- x -- -x - x - x - x - x - x ------------
d-14b-14b-14b-14b-14b-14b-14b-14b-14b-14b-14b-14b-14-14-14-14-14-14 ------------
un ------------------------------------------------- -----------------------------
e ------------------------------------------------- -----------------------------

e ------------------------------------------------- -----------------------------
b-17-15-12-15-17-15-12-15-17-15-12-10-12-15-12-10-12-15-17-15-12-15-17-15 - -----
g - x - x - x - x - x - x - x - x - x - x - x - x - x - x - x - x - -x - x - x - x - x - x - x - x ------
d-14-12 - 9-12-14-12 - 9-12-14-12 - 9 - 7 - 9 12 - 9 - 7 - 9-12-14-12 - -9-12-14-12 ------
un ------------------------------------------------- -----------------------------
e ------------------------------------------------- -----------------------------

e ------------------------------------------------- -----------------------------
b-17b-17b-17b-17b-17b-17b-17b-17b-17b-17b-17b-17 ter ------------------------- -----
g - x --- x --- x --- x --- x --- x --- x --- x --- x --- x --- x --- x -- -----------------------------
d-14b-14b-14b-14b-14b-14b-14b-14b-14b-14b-14b-14b ------------------------- -----
un ------------------------------------------------- -----------------------------
e ------------------------------------------------- -----------------------------

  ~~~~~~~~~~~~~~~ celebrar doblar ~~~~~~~~~~~~ ~
e ------------------------------------------------- --
b ------------------------------------------------- --
g-17-17-17-17-17-17-17-17-17-17-17-17 --------------
d - x - x - x - x - x - x - x - x - x - x - x - x ------------- --
un-14-14-14-14-14-14-14-14-14-14-14-14 --------------
e ------------------------------------------------- --

coro

outro: x4 también desempeñado por otro solo de guitarra durante
e ------------------------------------------------- -----------------------
b ------------------------------------------------- -----------------------
g ------------------------------------------------- -----------------------
d ----- 777 ------------------------------------------- ---------------------
un-999-555-555-444 ----------------------------------------- ---------------
e-777 ----- 333-222 --------------------------------------- -----------------

cuarta vez en la otra guitarra hace esto celebrar ~ ~ ~ curva
e ------------------------------------------------- -----------------------------
b-17b-17b-17b-17b-17b-17b-17b-17b-17b-17b-17b-17b-17-17-17-17 ----------------- --
g - x --- x --- x --- x --- x --- x --- x --- x --- x --- x --- x --- x -- -x - x - x - x ------------------
d-14b-14b-14b-14b-14b-14b-14b-14b-14b-14b-14b-14b-14-14-14-14 ----------------- --
un ------------------------------------------------- -----------------------------
e ------------------------------------------------- -----------------------------

saludoss si son fan de green day http://www.greenday.com bye

 

Fuente: tusacordes.com