a b c d e f g h i j k l m n o p q r s t u v w x y z 0-9

Ha Ha You´re Dead

Green Day

			
Verso
e|---------------------------------------------------------------------------|
B|---------------------------------------------------------------------------|
G|-5-5-5---------------------------------------------------------------------|
D|-5-5-5--5-5-5--7-7-7-------------------------------------------------------|
A|-3-3-3--5-5-5--7-7-7-------------------------------------------------------|
E|--------3-3-3--5-5-5-------------------------------------------------------|
  Pm..................
Pre-coro
e|---------------------------------------------------------------------------|
B|---------------------------------------------------------------------------|
G|----5----------------------------------------------------------------------|
D|-3--5--5-5-5-5-----x4------------------------------------------------------|
A|-3--3--5-5-5-5-------------------------------------------------------------|
E|-1-----3-3-3-3-------------------------------------------------------------|
Coro
e|---------------------------------------------------------------------------|
B|---------------------------------------------------------------------------|
G|-5-5-5--------5-5-5---------------------5-5-5--------5-5-5-5---------------|
D|-5-5-5--3-3-3-5-5-5--5-5-5--7-7-7-3-3-3-5-5-5--5-5-5-5-5-5-5---------------|
A|-3-3-3--3-3-3-3-3-3--5-5-5--7-7-7-3-3-3-3-3-3--5-5-5-3-3-3-3---------------|
E|--------1-1-1--------3-3-3--5-5-5-1-1-1--------3-3-3-----------------------|
Solo
e|---------------------------------------------------------------------------|
B|-5----5----5----5---6---6---6--6----5----5----5---5----8----8---8----8-----|
G|----5----5----5---5---5----5--5---5----5---5----5---5----7----7----7---7---|
D|---------------------------------------------------------------------------|
A|---------------------------------------------------------------------------|
E|---------------------------------------------------------------------------|

e|---------------------------------------------------------------------------|
B|--5----5----5-----5-----6---6----6----6----5----5----3----3----------------|
G|-----5----5----5-----5-----5---5----5--5------5---5------4---4--5-5--------|
D|---------------------------------------------------------------------------|
A|---------------------------------------------------------------------------|
E|---------------------------------------------------------------------------|

Letra

How do you get your sleep at night?
How did you get your noose so tight?
Like chewing on tinfoil, it´s so much fun
Gonna be dead before your gone

Cause look how things have gotten
And I´ll be happy so I won´t pretend
And I´ll be cheering that you´re going down
And I´ll be laughing, I´ll be laughing

How many feelings can you steal?
Gotta be part of your appeal
I can see through you cause you´re wearing thin
Like chewing on tinfoil once again

Ha Ha you´re dead
And I´m so happy
In loving memory
Of your demise

When your ship is going down
I´ll go out and paint the town
Ha Ha you´re dead
Ha Ha you´re dead
Ha Ha you´re dead

ha ha ha

Ha Ha you´re dead
The joke is over
You were an asshole
And now you´re gone
As your ship is going down
I´ll stand by and watch you drown

Ha Ha you´re dead
You´re gonna be dead
Just remember what I said
Ha Ha you´re dead
Ha Ha you´re dead
Ha Ha you´re dead


Fuente original:.ultimate-guitar

Fuente: tusacordes.com