a b c d e f g h i j k l m n o p q r s t u v w x y z 0-9

Good Riddance

Green Day

G
D
Em
C
			
RASGUIDO:
abajo, abajo,    arriba, arriba,     abajo, arriba


PUNTEO 1:

G 			C9 				D
|----3-------------------------------------------------------------------------------|
|----------------------------------3-------------------------------------------------|
|-------------0----------------------------2-----------------------0--------0------|
|------0---0---0-------------------0---0---0-----------------------2---2---2-----|
|--------3----------------------------3--------------------------------3------------|
|------------------------------------------------------------------------------------|

PUNTEO 2:

	Em			     D 		 	  C 		    	G
|----------------------------------------------------------------------------------3------------------|
|----5--------------------------------------------------5---------------------------------------------|
|-------------0--------------------0--------0------------------2--------------------------0---------|
|------0---0---0--------------------2---2----2---------0---0---0-----------------0---0---0-------|
|--------0-----------------------------3-------------------1--------------3-----------3-------------|
|------------------------------------------------------------------------------------------------------|


PUNTEO 3:
	Em			     G			     Em			G 		       	D
|----------------------------------3------------------------------------------------3---------------------------------------------|
|----5---------------------------------------- -------------5---------------------------------------------------------------------|
|-------------0----------------------0------------------------0-----------------------0----------------------0--------0---------|
|------0---0---0-------------------- --0---0---0--------------0---0---0---------------0---0---0-------------2---2---2-------|
|--------0--------------------------------3-----------------------0------------------------0----------------------3--------------|
|----------------------------------------------------------------------------------------------------------------------------------|






PUNTEO1
Another turning point, a fork stuck in the road
Time grabs you by the wrist, directs you where to go

PUNTEO2
So make the best of this test, and don't ask why
It's not a question, but a lesson learned in time

PUNTEO 3
It's something unpredictable, but in the end it's right.
I hope you had the time of your life.

PUNTEO 1
So take the photographs, and still frames in your mind
Hang it on a shelf in good health and good time

PUNTEO 2
Tattoos of memories and dead skin on trial
For what it's worth it was worth all the while

PUNTEO 3
It's something unpredictable, but in the end it's right. 
I hope you had the time of your life. 

G C9 D
G C9 D
G C9 D
G C9 D
Em D C G
Em D C G

Em  		  G		    Em  		  G
It's something unpredictable, but in the end it's right. 
Em  		    D             G
I hope you had the time of your life. 

G C9 D
G C9 D

PUNTEO 3
It's something unpredictable, but in the end it's right. 
I hope you had the time of your life.Fuente: Tus acordes