a b c d e f g h i j k l m n o p q r s t u v w x y z 0-9

Good Riddance (time Of Your Life)

Green Day

			


Time Your Life Good Riddance 

INTRO:   

E|------------------------------|
B|------------------------------|
G|------0-------------------0---|
D|----0---0---------------0---0-|
A|------------------------------|
E|-3-------------------3--------|

                                                          x2
E|--------------------------------------------------------|
B|------3-------------3-------------3-------------3-------|
G|----0---0---0-----0---0---0-----0---0---0-----2---2---2-|
D|----------0-------------0-------------2----0--------0---|
A|-----------------------------3--------------------------|
E|-3-------------3----------------------------------------| 



verso:
E|--------------------------------------------------------|
B|------3-------------3-------------3-------------3-------|
G|----0---0---0-----0---0---0-----0---0---0-----2---2---2-|
D|----------0-------------0-------------2----0--------0---|
A|-----------------------------3--------------------------|
E|-3-------------3----------------------------------------|

Another turning point a fork stuck in the road

E|--------------------------------------------------------|
B|------3-------------3-------------3-------------3-------|
G|----0---0---0-----0---0---0-----0---0---0-----2---2---2-|
D|----------0-------------0-------------2----0--------0---|
A|-----------------------------3--------------------------|
E|-3-------------3----------------------------------------|
  Time grabs you by the wrist directs you where to go

E|--------------------------------------------------------|
B|------0-------------3-------------3-------------3-------|
G|----0---0---0-----2---2---2-----0---0---0-----0---0---0-|
D|----------2----0--------0-------------2-------------0---|
A|-2---------------------------3--------------------------|
E|-------------------------------------------3------------|
  So make the best of this task and dont ask why

E|--------------------------------------------------------|
B|------0-------------3-------------3-------------3-------|
G|----0---0---0-----2---2---2-----0---0---0-----0---0---0-|
D|----------2----0--------0-------------2-------------0---|
A|-2---------------------------3--------------------------|
E|-------------------------------------------3------------|
  It's not a question but a lesson learned in time



estribillo:

E|--------------------------------------------------------|
B|------0-------------3-------------0-------------3-------|
G|----0---0---0-----0---0---0-----0---0---0-----0---0---0-|
D|----------2-------------0-------------2-------------0---|
A|-2---------------------------2--------------------------|
E|---------------3---------------------------3------------|
  It's something unpredictable but in the end is right

E|--------------------------------------------------------|
B|------0-------------3-----------------------------------|
G|----0---0---0-----2---2---2-----------------------------|
D|----------2----0--------0-------------------------------|
A|-2------------------------------------------------------|
E|--------------------------------------------------------|
  I hope you had the time of your life	

  

intro:
      G9    C9     D?    G9    C9    D
E|----x------x-----x-----x-----x-----x----|
B|----3------3-----3-----3-----3-----3----|
G|----0------0-----2-----0-----0-----2----|
D|----0------2-----0-----0-----2-----0----|
A|----2------3-----x-----2-----3-----x----|
E|----3------x-----x-----3-----x-----x----|			
 


verso :
     G9                      C9                    D     
E|----3-----------------------3--------------------2----|
B|----3-----------------------3--------------------3----|
G|----0-----------------------0--------------------2----|
D|----0-----------------------2--------------------0----|
A|----2-----------------------3--------------------x----|
E|----3-----------------------x--------------------x----|	
  So take the photographs and still frames in your mind

     G9                      C9                    D     
E|----3-----------------------3--------------------2----|
B|----3-----------------------3--------------------3----|
G|----0-----------------------0--------------------2----|
D|----0-----------------------2--------------------0----|
A|----2-----------------------3--------------------x----|
E|----3-----------------------x--------------------x----|
    Hang it on the shelf with good health and good time

      Em        D             C          G9                       
E|----0---------2-------------0----------3-------|
B|----0---------3-------------1----------3-------|
G|----0---------2-------------0----------0-------|
D|----2---------0-------------2----------0-------|
A|----2---------x-------------3----------2-------|
E|----0---------x-------------x----------3-------|
    Tatoos and memories and dead skin on trial

      Em        D             C             G9                       
E|----0---------2-------------0-------------3-------|
B|----0---------3-------------1-------------3-------|
G|----0---------2-------------0-------------0-------|
D|----2---------0-------------2-------------0-------|
A|----2---------x-------------3-------------2-------|
E|----0---------x-------------x-------------3-------|
  For what its worth, it was worth all the while

      Em           G9           Em           G9                      
E|----0------------3-------------0------------3-------|
B|----0------------3-------------0------------3-------|
G|----0------------0-------------0------------0-------|
D|----2------------0-------------2------------0-------|
A|----2------------2-------------2------------2-------|
E|----0------------3-------------0------------3-------|
Its something unpredictable but in the end is right

      Em              D       
E|----0---------------2-------------
B|----0---------------3-------------
G|----0---------------2-------------
D|----2---------------0-------------
A|----2---------------x-------------
E|----0---------------x-------------
I hope you had the time of your life 

verso:x1  
fin:

E|------------------------------------------------------x-
B|------3------------3------------3------------3--------3-|
G|----0---0---0----0---0---0----0---0---0----2---2-2----0-|
D|----------0------------0------------2----0---------0--0-|
A|----------------------------3-------------------------2-|
E|-3-------------3--------------------------------------3-|



=============================================================================

Fuente: Lacuerda