a b c d e f g h i j k l m n o p q r s t u v w x y z 0-9

Going To Pasalacqua

Green Day

			
Intro
e|---------------------------------------------------------------------------|
B|-----3/2h3p2---------------------------------------------------------------|
G|---------------------------------------------------------------------------|
D|-7-7----------7------------------------------------------------------------|
A|-7-7----------7------------------------------------------------------------|
E|-5-5----------5------------------------------------------------------------|
Verse             
e|---------------------------------------------------------------------------|
B|---------------------------------------------------------------------------|
G|---------7-7-7-7-----------------------------------------------------------|
D|-2-2-2-2-7-7-7-7--7-7-7-7-7-7----------------------------------------------|
A|-2-2-2-2-5-5-5-5--7-7-7-7-7-7----------------------------------------------|
E|-0-0-0-0----------5-5-5-5-5-5----------------------------------------------|
Chorus
e|---------------------------------------------------------------------------|
B|---------------------------------------------------------------------------|
G|-7-7-7-7-7---------------------7-7-7-7-7-----------------------------------|
D|-7-7-7-7-7-7-7-7-7-7-2-2-2-2-2-7-7-7-7-7-7-7-7-7-7-------------------------|
A|-5-5-5-5-5-7-7-7-7-7-2-2-2-2-2-5-5-5-5-5-7-7-7-7-7-------------------------|
E|-----------5-5-5-5-5-0-0-0-0-0-----------5-5-5-5-5-------------------------|
Verse 2
e|---------------------------------------------------------------------------|
B|---------------------------------------------------------------------------|
G|-------------------------7-7-7-7-------------------------------------------|
D|-7-7-7-7-2-2-2-2-4-4-4-4-7-7-7-7-------------------------------------------|
A|-7-7-7-7-2-2-2-2-4-4-4-4-5-5-5-5-------------------------------------------|
E|-5-5-5-5-0-0-0-0-2-2-2-2---------------------------------------------------|
Bridge
e|---------------------------------------------------------------------------|
B|---------------------------------------------------------------------------|
G|---7---7---7---7---7-------------------------------------------------------|
D|-7-7-7-7-7-7-7-7-7-7-------------------------------------------------------|
A|-7-5-7-5-7-5-7-5-7-5-------------------------------------------------------|
E|-5---5---5---5---5---------------------------------------------------------|
Outro
e|---------------------------------------------------------------------------|
B|---------------------------------------------------------------------------|
G|-------7-------------------------------------------------------------------|
D|-7-2-4-7-7-----------------------------------------------------------------|
A|-7-2-4-5-7-----------------------------------------------------------------|
E|-5-0-2---5-----------------------------------------------------------------|

Fuente: tusacordes.com