a b c d e f g h i j k l m n o p q r s t u v w x y z 0-9

Extraordinary Girl

Green Day

A
Dm
G
			
 ------------------------------------------------------------
 Extraordinary Girl - Green Day
------------------------------------------------------------

Verse [two guitars]:
                                  [She's an extraordinary girl]
                                  [She sees the mirror of herself]
   A       Dm      A       Dm      A       Dm       
e|---------1-1-111---------1-1-111---------1-1-111---|              
B|-2-2-222-3-3-333-2-2-222-3-3-333-2-2-222-3-3-333---|
G|-2-2-222-2-2-222-2-2-222-2-2-222-2-2-222-2-2-222---|
D|-2-2-222-0-0-000-2-2-222-0-0-000-2-2-222-0-0-000---|
A|---------------------------------------------------|
E|---------------------------------------------------|

e|---------------------------------------------------|
B|---------6---8-6---------6---8-6-------------------|
G|-9---7-9---------9---7-9---------9-----------------|
D|---------------------------------------------------|
A|---------------------------------------------------|
E|---------------------------------------------------|

   A       Dm      A       G       A      
e|---------1-1-111-----------------------------------|
B|-2-2-222-3-3-333-2-2-222-0-0-000-2--22--22-2-222---|
G|-2-2-222-2-2-222-2-2-222-0-0-000-2--22--22-2-222---|
D|-2-2-222-0-0-000-2-2-222-0-0-000-2--22--22-2-222---|
A|-------------------------2-2-222-------------------|
E|-------------------------3-3-333-------------------|

e|---------------------------------------------------|
B|---------------------------------------------------|
G|---------------------------------6--46--46-7-646---|
D|---------------------------------------------------|
A|---------------------------------------------------|
E|---------------------------------------------------|

   [He lacks the courage in his mind]
   [He steals the image in her kiss]
   A       Dm      A       Dm      A       G       
e|---------1-1-111---------1-1-111-------------------|
B|-2-2-222-3-3-333-2-2-222-3-3-333-2-2-222-0-0-000---|
G|-2-2-222-2-2-222-2-2-222-2-2-222-2-2-222-0-0-000---|
D|-2-2-222-0-0-000-2-2-222-0-0-000-2-2-222-0-0-000---|
A|-----------------------------------------2-2-222---|
E|-----------------------------------------3-3-333---|

e|---------------------------------------------------|
B|---------6---8-6---------6---8-6-------------------|
G|-9---7-9---------9---7-9---------9---9---7---9-7---|
D|---------------------------------------------------|
A|---------------------------------------------------|
E|---------------------------------------------------|
   A 
e|-------------------|
B|-2--22--22-2-222---|
G|-2--22--22-2-222---|
D|-2--22--22-2-222---|
A|-------------------|
E|-------------------|

e|-------------------|
B|-------------------|
G|-6--46--46-7-646---|
D|-------------------|
A|-------------------|
E|-------------------|



Chorus [one guitar]:

[She's all alone again...]
   F#5   E5   D5      E5     A5    E5/B D5      E5
e|----------------------------5----------------------|
B|-----------------------------5---------------------|
G|------------7-7-7---9-9-------6--9-9--7-7-7---9-9--|
D|-4-44--2-2--7-7-7---9-9----7-----9-9--7-7-7---9-9--|
A|-4-44--2-2--5-5-5---7-7----7-----7-7--5-5-5---7-7--|
E|-2-22--0-0-----------------5-----7-7---------------|

                      [She gets so sick of cryin'...]
    D5        E5       D5       F5
e|----------------------------------|
B|----------------------------------|
G|-7-7-777---9-9-999---7--------10--|
D|-7-7-777---9-9-999---7--------10--|
A|-5-5-555---7-7-777---5--------8---|
E|----------------------------------|



Bridge [played twice]:
   A       Dm      A       Dm      A       G       
e|---------1-1-111---------1-1-111-------------------|
B|-2-2-222-3-3-333-2-2-222-3-3-333-2-2-222-0-0-000---|
G|-2-2-222-2-2-222-2-2-222-2-2-222-2-2-222-0-0-000---|
D|-2-2-222-0-0-000-2-2-222-0-0-000-2-2-222-0-0-000---|
A|-----------------------------------------2-2-222---|
E|-----------------------------------------3-3-333---|

e|---------------------------------------------------|
B|---------6---8-6---------6---8-6-------------------|
G|-9---7-9---------9---7-9---------9--9-10-7---9-7---|
D|---------------------------------------------------|
A|---------------------------------------------------|
E|---------------------------------------------------|
   A 
e|-------------------|
B|-2--22--22-2-222---|
G|-2--22--22-2-222---|
D|-2--22--22-2-222---|
A|-------------------|
E|-------------------|

e|-------------------|
B|-------------------|
G|-6--46--46-7-646---|
D|-------------------|
A|-------------------|
E|-------------------|



End chorus [one guitar]:

[She's all alone again...]
   F#5   E5   D5      E5     A5    E5/B D5      E5
e|----------------------------5----------------------|
B|-----------------------------5---------------------|
G|------------7-7-7---9-9-------6--9-9--7-7-7---9-9--|
D|-4-44--2-2--7-7-7---9-9----7-----9-9--7-7-7---9-9--|
A|-4-44--2-2--5-5-5---7-7----7-----7-7--5-5-5---7-7--|
E|-2-22--0-0-----------------5-----7-7---------------|

                          [She gets so sick of cryin'...]
    D5        E5     x3    D5       F5
e|--------------------------------------|
B|--------------------------------------|
G|-7-7-777---9-9-999-------7--------10--|
D|-7-7-777---9-9-999-------7--------10--|
A|-5-5-555---7-7-777-------5--------8---|
E|--------------------------------------|



End:
   A       Dm      A       Dm      A       Dm      
e|---------1-1-111---------1-1-111---------1-1-111-|
B|-2-2-222-3-3-333-2-2-222-3-3-333-2-2-222-3-3-333-|
G|-2-2-222-2-2-222-2-2-222-2-2-222-2-2-222-2-2-222-|
D|-2-2-222-0-0-000-2-2-222-0-0-000-2-2-222-0-0-000-|
A|-------------------------------------------------|
E|-------------------------------------------------|

e|-------------------------------------------------|
B|---------6---8-6---------6---8-6---------6---8-6-|
G|-9---7-9---------9---7-9---------9---7-9---------|
D|-------------------------------------------------|
A|-------------------------------------------------|
E|-------------------------------------------------|

   A       Dm      A [hold]
e|---------1-1-111----|
B|-2-2-222-3-3-333-2--|
G|-2-2-222-2-2-222-2--|
D|-2-2-222-0-0-000-2--|
A|--------------------|
E|--------------------|

e|--------------------|
B|---------6---8-6----|
G|-9---7-9---------9--|
D|--------------------|
A|--------------------|
E|--------------------|

Order:

Verse
Chorus
Verse
Chorus
Bridge
End Chorus
End

Lyrics:

She's an Extraordinary girl
In an ordinary world                    [Verse]
And she cant seem to get away

He lacks the courage in his mind
Like a child left behind                [Verse]
Like a pet left in the rain

She's all alone again
Wiping the tears from her eyes
Some days he feels like dying           [Chorus]
She gets so sick of crying

She sees the mirror of herself
An image she wants to sell              [Verse]
To anyone willing to buy

He steals the image in her kiss
From her heart's apocalypse             [Verse]
From the one called Whatsername 

[Chorus]
[Bridge]

She's all alone again
Wiping the tears from her eyes
Some days he feels like dying           [End Chorus]
Some days it's not worth trying
Now that they both are finding
She gets so sick of crying

She's an extraordinary girl
An extraordinary girl
An extraordinary girl                   [End]
An extraordinary girl

Fuente: Lacuerda