a b c d e f g h i j k l m n o p q r s t u v w x y z 0-9

Emenius Sleepus

Green Day

			
Intro
   B5   E5   B5   E5   B5   E5   A5   F#5
e|---------------------------------------------------------------|
B|---------------------------------------------------------------|
G|-4---------4---------4-----------------------------------------|
D|-4----2----4----2----4----2----7----4--------------------------|
A|-2----2----2----2----2----2----7----4--------------------------|
E|------0---------0---------0----5----2--------------------------|

Verse x2
   B5   E5   B5   E5   B5   E5   A5   F#5
e|---------------------------------------------------------------|
B|---------------------------------------------------------------|
G|-4---------4---------4-----------------------------------------|
D|-4----2----4----2----4----2----7----4--------------------------|
A|-2----2----2----2----2----2----7----4--------------------------|
E|------0---------0---------0----5----2--------------------------|

Chorus
   E5   F#5  x3  B5   E5   B5   F#5  B5   E5   A5   F#5
e|---------------------------------------------------------------|
B|---------------------------------------------------------------|
G|-----------------4---------4---------4-------------------------|
D|-2----4----------4----2----4----4----4----2----7----4----------|
A|-2----4----------2----2----2----4----2----2----7----4----------|
E|-0----2---------------0---------2---------0----5----2----------|

Bridge
   B    A           x3  B    A    F#5
e|-7----5-----------------7----5---------------------------------|
B|-7----5--5--------------7----5---------------------------------|
G|-8----6----6---6--------8----6---------------------------------|
D|-9----7------7----------9----7----4----------------------------|
A|-9----7-----------------9----7----4----------------------------|
E|-7----5-----------------7----5----2----------------------------|

End
   B5   E5   B5   F#5  B5   E5   A5   F#5    B5
e|---------------------------------------------------------------|
B|---------------------------------------------------------------|
G|-4---------4---------4---------------------4-------------------|
D|-4----2----4----4----4----2----7----4------4-------------------|
A|-2----2----2----4----2----2----7----4------2-------------------|
E|------0---------2---------0----5----2--------------------------|


Order

Intro
Verse 1
Chorus 1
Verse 2
Chorus 2
End
Bridge
Chorus 1
End


Lyrics

I saw my friend the other day
And I don't know			Verse 1
Exactly just what he became
It doesn't show

It wasn't long ago
That I was just like you
And now I think I'm sick		Chorus 1
And I wanna go home

How have I been, how have you been?
It's been so long			Verse 2
What have you done with all your time?
And what went wrong?

I knew you back when
And you, you knew me			Chorus 2
And now I think you're sick
And I wanna go home

Anybody ever say no?
Ever tell you that you weren't right?
Where did all the little kid go?	Bridge
Did you lose it in a hateful fight?
And you know it's true

Chorus 1

Fuente: Lacuerda