a b c d e f g h i j k l m n o p q r s t u v w x y z 0-9

Emenius Sleepus

Green Day

			
Intro/Verse
e|---------------------------------------------------------------------------|
B|---------------------------------------------------------------------------|
G|-444-------444-------444---------------------------------------------------|
D|-444-2-222-444-2-222-444-2-222--777-4-444----------------------------------|
A|-222-2-222-222-2-222-222-2-222--777-4-444----------------------------------|
E|-----0-000-----0-000-----0-000--555-2-222----------------------------------|

Chrous
e|--------------------------------------------------------------------------
B|--------------------------------------------------------------------------
G|--------------------------------------------444-------444-------444-------
D|-222222-444444-222222-444444-222222-444444--444-2-222-444-4-444-444-2-222-
A|-222222-444444-222222-444444-222222-444444--222-2-222-222-4-444-222-2-222-
E|-000000-222222-000000-222222-000000-222222------0-000-----2-222-----0-000-

------------|
------------|
------------|
-777-4-444--|
-777-4-444--|
-555-2-222--|

Bridge (*-let ring)
e|7*-5*------TIMES 37*-5*------------------------------------------|
B|7--5-5--------------7--5-------------------------------------------|
G|8--6--6-6-----------8--6-------------------------------------------|
D|-9----7----7-------------9----7---4----------------------------------------|
A|-9----7------------------9----7---4----------------------------------------|
E|-7----5------------------7----5---2----------------------------------------|

Chrous
e|---------------------------------------------------------------------------|
B|---------------------------------------------------------------------------|
G|-444-------444-------444-----------------4---------------------------------|
D|-444-2-222-444-4-444-444-2-222-777-4-444-4---------------------------------|
A|-222-2-222-222-4-444-222-2-222-777-4-444-2---------------------------------|
E|-----0-000-----2-222-----0-000-555-2-222-----------------------------------|
==============================================================================

Fuente: tusacordes.com