a b c d e f g h i j k l m n o p q r s t u v w x y z 0-9

East Jesus Nowhere

Green Day

			
1.--------------------x--xx-xx-xx---------------------
2.--------------------x--xx-xx-xx---------------------
3.---9--12--9--7--9---x--xx-xx-xx---------------------
4.---9--12--9--7--9---x--xx-xx-xx---------------------
5.---7--10--7--5--7---x--xx-xx-xx---------------------
6.--------------------x--xx-xx-xx---------------------

Raise your hands now to testify Your confession will be crucified
You're a sacrificial suicide Like a dog that's been sodomized
Stand up! - All the white boys Sit down! - All the black girls
You're the soldiers of the new world



1.----------x--xx-xx-xx----------x--xx-xx-xx----------
2.----------x--xx-xx-xx----------x--xx-xx-xx----------
3.---7---9--x--xx-xx-xx---7---9--x--xx-xx-xx----------
4.---7-7-9--x--xx-xx-xx---7-7-9--x--xx-xx-xx----------
5.---5-7-7--x--xx-xx-xx---5-7-7--x--xx-xx-xx----------
6.-----5----x--xx-xx-xx-----5----x--xx-xx-xx----------

Put your faith in a miracle And it's non - denominational
Join the choir we will be singing In the church of wishful thinking

1.----------------------------------------------------
2.----------------------------------------------------
3.--12--7--9-9-9-9-9-9-9-9-9-9-9-9--------------------
4.--12--7--9-9-9-9-9-9-9-9-9-9-9-9--------------------
5.--10--5--7-7-7-7-7-7-7-7-7-7-7-7--------------------
6.----------------------------------------------------

1.----------------------------------------------------
2.----------------------------------------------------
3.--12--7--9-9-9-9-9-9-9-9-9-9-9-9-12-12-12-12-12-12--
4.--12--7--9-9-9-9-9-9-9-9-9-9-9-9-12-12-12-12-12-12--
5.--10--5--7-7-7-7-7-7-7-7-7-7-7-7-10-10-10-10-10-10--
6.----------------------------------------------------




A fire burns today
Of blasphemy and genocide
The sirens of decay
Will infiltrate the faith fanatics

1.----------------------------------------------------
2.----------------------------------------------------
3.----------------------------------------------------
4.--2-2--2-2-2--5-5--5-5-5--7-7--7-7-7--10-10-9-9-----
5.--2-2--2-2-2--5-5--5-5-5--7-7--7-7-7--10-10-9-9-----
6.--0-0--0-0-0--3-3--3-3-3--5-5--5-5-5---8--8-7-7-----

1.----------------------------------------------------
2.----------------------------------------------------
3.----------------------------------------------------
4.---2---6-9---12-10---7-6-----2---6-9---12-10---7-6--
5.----------------------------------------------------
6.----------------------------------------------------

1.----------------------------------------------------
2.----------------------------------------------------
3.----------------------------------------------------
4.---2---6-9---12-10---7-6-----2---6-9---12-10---7-6--
5.----------------------------------------------------
6.----------------------------------------------------

Oh bless me lord for I have sinned
It's been a lifetime since I last confessed
I threw my crutches in "The river of a shadow of doubt"
And I'll be dressed in my Sunday best

1.----------x--xx-xx-xx----------x--xx-xx-xx----------
2.----------x--xx-xx-xx----------x--xx-xx-xx----------
3.---7---9--x--xx-xx-xx---7---9--x--xx-xx-xx----------
4.---7-7-9--x--xx-xx-xx---7-7-9--x--xx-xx-xx----------
5.---5-7-7--x--xx-xx-xx---5-7-7--x--xx-xx-xx----------
6.-----5----x--xx-xx-xx-----5----x--xx-xx-xx----------


A fire burns today
Of blasphemy and genocide
1.----------------------------------------------------
2.----------------------------------------------------
3.----------------------------------------------------
4.--2-2--2-2-2--5-5--5-5-5--7-7--7-7-7--10-10-9-9-----
5.--2-2--2-2-2--5-5--5-5-5--7-7--7-7-7--10-10-9-9-----
6.--0-0--0-0-0--3-3--3-3-3--5-5--5-5-5---8--8-7-7-----


The sirens of decay
Will infiltrate the faith fanatics
1.----------------------------------------------------
2.----------------------------------------------------
3.----------------------------------------------------
4.--2-2--2-2-2--5-5--5-5-5--7-7--7-7-7--10-10-9-9-----
5.--2-2--2-2-2--5-5--5-5-5--7-7--7-7-7--10-10-9-9-----
6.--0-0--0-0-0--3-3--3-3-3--5-5--5-5-5---8--8-7-7-----


1.----------------------------------------------------
2.----------------------------------------------------
3.----------------------------------------------------
4.---2---6-9---12-10---7-6-----2---6-9---12-10---7-6--
5.----------------------------------------------------
6.----------------------------------------------------

1.----------------------------------------------------
2.----------------------------------------------------
3.----------------------------------------------------
4.---2---6-9---12-10---7-6-----2---6-9---12-10---7-6--
5.----------------------------------------------------
6.----------------------------------------------------


Don't test me
1.----------------------------------------------------
2.----------------------------------------------------
3.----7-7-7-7-7-7-7-7-7-7-7-7-7-----------------------
4.----7-7-7-7-7-7-7-7-7-7-7-7-7-----------------------
5.----5-5-5-5-5-5-5-5-5-5-5-5-5-----------------------
6.----------------------------------------------------


Second guess me
1.----------------------------------------------------
2.----------------------------------------------------
3.----7-7-7-7-7-7-7-7-7-7-7-7-7-----------------------
4.----7-7-7-7-7-7-7-7-7-7-7-7-7-----------------------
5.----5-5-5-5-5-5-5-5-5-5-5-5-5-----------------------
6.----------------------------------------------------


Protest me                        You will disappear
1.----------------------------------------------------
2.----------------------------------------------------
3.----7-7-7-7-7-7-7-7-7-7-7-7-7---7----7----7---------
4.----7-7-7-7-7-7-7-7-7-7-7-7-7---7----7----7---------
5.----5-5-5-5-5-5-5-5-5-5-5-5-5---5----5----5---------
6.----------------------------------------------------


 want to know who's allowed to breed
All the dogs who never learned to read
Missionary politicians
And the cops of a new religion
1.----------x--xx-xx-xx----------x--xx-xx-xx----------
2.----------x--xx-xx-xx----------x--xx-xx-xx----------
3.---7---9--x--xx-xx-xx---7---9--x--xx-xx-xx----------
4.---7-7-9--x--xx-xx-xx---7-7-9--x--xx-xx-xx----------
5.---5-7-7--x--xx-xx-xx---5-7-7--x--xx-xx-xx----------
6.-----5----x--xx-xx-xx-----5----x--xx-xx-xx----------

1.----------x--xx-xx-xx-------------------------------
2.----------x--xx-xx-xx-------------------------------
3.---7---9--x--xx-xx-xx---7---9-9-9-9-9-9-9-12-12-12--
4.---7-7-9--x--xx-xx-xx---7-7-9-9-9-9-9-9-9-12-12-12--
5.---5-7-7--x--xx-xx-xx---5-7-7-7-7-7-7-7-7-10-10-10--
6.-----5----x--xx-xx-xx-----5-------------------------

yeah!

SOLO

1.--------------------------------------12--12-14-----
2.-------------------10-10--12-13---12----12-----15---
3.-9-9--11-12---12-----9------------------------------
4.--9---------12--12----------------------------------
5.----------------------------------------------------
6.----------------------------------------------------

1.---------12--12--14-15--14-12-----------------------
2.----15-----12---------15----------------------------
3.--12--12--------------------------------------------
4.----------------------------------------------------
5.----------------------------------------------------
6.----------------------------------------------------
 fin del solo

1.----------------------------------------------------
2.----------------------------------------------------
3.----------------------------------------------------
4.-22222222--666666-9999999--12121212-101010--777-666-
5.----------------------------------------------------
6.----------------------------------------------------

1.----------------------------------------------------
2.----------------------------------------------------
3.----------------------------------------------------
4.-22222222--666666-9999999--12121212-101010--777-666-
5.----------------------------------------------------
6.----------------------------------------------------


A fire burns today
Of blasphemy and genocide

1.----------------------------------------------------
2.----------------------------------------------------
3.--------2----5----7----10----9----------------------
4.-------2----5----7----10----9-----------------------
5.------0----3----5-----8----7------------------------
6.----------------------------------------------------


The sirens of decay
Will infiltrate the inside

1.----------------------------------------------------
2.----------------------------------------------------
3.--------2----5----7----10----9----------------------
4.-------2----5----7----10----9-----------------------
5.------0----3----5-----8----7------------------------
6.----------------------------------------------------


yeahhhhhhhhhhhhhhhhhhhh!


1.--------------------x--xx-xx-xx---------------------
2.--------------------x--xx-xx-xx---------------------
3.---9--12--9--7--9---x--xx-xx-xx---------------------
4.---9--12--9--7--9---x--xx-xx-xx---------------------
5.---7--10--7--5--7---x--xx-xx-xx---------------------
6.--------------------x--xx-xx-xx---------------------

1.--------------------x--xx-xx-xx---------------------
2.--------------------x--xx-xx-xx---------------------
3.---9--12--9--7--9---x--xx-xx-xx---------------------
4.---9--12--9--7--9---x--xx-xx-xx---------------------
5.---7--10--7--5--7---x--xx-xx-xx---------------------
6.--------------------x--xx-xx-xx---------------------

1.--------------------x--xx-xx-xx---------------------
2.--------------------x--xx-xx-xx---------------------
3.---9--12--9--7--9---x--xx-xx-xx---------------------
4.---9--12--9--7--9---x--xx-xx-xx---------------------
5.---7--10--7--5--7---x--xx-xx-xx---------------------
6.--------------------x--xx-xx-xx---------------------

1.--------------------x--xx-xx-xx---------------------
2.--------------------x--xx-xx-xx---------------------
3.---9--12--9--7--9---x--xx-xx-xx---------------------
4.---9--12--9--7--9---x--xx-xx-xx---------------------
5.---7--10--7--5--7---x--xx-xx-xx---------------------
6.--------------------x--xx-xx-xx---------------------

1.----------------------------------------------------
2.----------------------------------------------------
3.---7---9----9-9-9-9---------------------------------
4.---7-7-9----9-9-9-9---------------------------------
5.---5-7-7----7-7-7-7---------------------------------
6.-----5----------------------------------------------

Fuente: Tusacordes