a b c d e f g h i j k l m n o p q r s t u v w x y z 0-9

East Jesus Nowhere

Green Day

			
Intro
e|-------------xx-xx-xx----------------|
B|-------------xx-xx-xx----------------|Despues lo hace otra vez
D|-9-12-9-7-9--xx-xx-xx-x4-----------|pero con distorcion
A|-7-10-7-5-7--xx-xx-xx----------------|
E|-------------xx-xx-xx----------------|


Verso
e|--------xx-xx-xx-------|------------xx-xx-xx-----------------|
B|--------xx-xx-xx-------|------------xx-xx-xx-----------------|
G|--7---9-xx-xx-xx-------|------------xx-xx-xx-----------------|
D|--7-7-9-xx-xx-xx--X4-|-9-12-9-7-9-xx-xx-xx-X3-9-12-9-7-9-|
A|--5-7-7-xx-xx-xx-------|-7-10-7-5-7-xx-xx-xx------7-10-7-5-7-|
E|----5---xx-xx-xx-------|------------xx-xx-xx-----------------|

Fuente: tusacordes.com