a b c d e f g h i j k l m n o p q r s t u v w x y z 0-9

East Jesus Nowhere (solo)

Green Day

			
e|-----------------------------------------------------------------12------12|
B|-------------------------------10-------10---12--13------12----------12----|
G|----9-----9--11-12----12------------9---------------12-------11------------|
D|-------9-----------12-----12-----------------------------------------------|
A|---------------------------------------------------------------------------|
E|---------------------------------------------------------------------------|

e|--14----------------------12--------12------14----15--------14----12-------|
B|------15-------15--------------12----------------------15------------------|
G|----------12---------12----------------------------------------------------|
D|---------------------------------------------------------------------------|
A|---------------------------------------------------------------------------|
E|---------------------------------------------------------------------------|

Fuente: tusacordes.com